  0
SECTION
  2
HEADER
  9
$ACADVER
  1
AC1018
  9
$ACADMAINTVER
 70
   104
  9
$DWGCODEPAGE
  3
ANSI_932
  9
$LASTSAVEDBY
  1
tic-shibatatoyoko
  9
$INSBASE
 10
0.0
 20
0.0
 30
0.0
  9
$EXTMIN
 10
359.4728984294925
 20
-23700.00003801614
 30
0.0
  9
$EXTMAX
 10
23500.2285754295
 20
2382.267575965566
 30
0.0
  9
$LIMMIN
 10
0.0
 20
0.0
  9
$LIMMAX
 10
420.0
 20
297.0
  9
$ORTHOMODE
 70
     0
  9
$REGENMODE
 70
     1
  9
$FILLMODE
 70
     1
  9
$QTEXTMODE
 70
     0
  9
$MIRRTEXT
 70
     0
  9
$LTSCALE
 40
1.0
  9
$ATTMODE
 70
     1
  9
$TEXTSIZE
 40
2.5
  9
$TRACEWID
 40
1.0
  9
$TEXTSTYLE
  7
STANDARD
  9
$CLAYER
  8
0
  9
$CELTYPE
  6
ByLayer
  9
$CECOLOR
 62
   256
  9
$CELTSCALE
 40
1.0
  9
$DISPSILH
 70
     0
  9
$DIMSCALE
 40
1.0
  9
$DIMASZ
 40
3.5
  9
$DIMEXO
 40
1.0
  9
$DIMDLI
 40
10.0
  9
$DIMRND
 40
0.0
  9
$DIMDLE
 40
0.0
  9
$DIMEXE
 40
1.0
  9
$DIMTP
 40
0.1
  9
$DIMTM
 40
0.1
  9
$DIMTXT
 40
3.5
  9
$DIMCEN
 40
0.0
  9
$DIMTSZ
 40
0.0
  9
$DIMTOL
 70
     0
  9
$DIMLIM
 70
     0
  9
$DIMTIH
 70
     0
  9
$DIMTOH
 70
     0
  9
$DIMSE1
 70
     0
  9
$DIMSE2
 70
     0
  9
$DIMTAD
 70
     1
  9
$DIMZIN
 70
     8
  9
$DIMBLK
  1

  9
$DIMASO
 70
     1
  9
$DIMSHO
 70
     1
  9
$DIMPOST
  1

  9
$DIMAPOST
  1
"
  9
$DIMALT
 70
     0
  9
$DIMALTD
 70
     2
  9
$DIMALTF
 40
0.0393701
  9
$DIMLFAC
 40
1.0
  9
$DIMTOFL
 70
     1
  9
$DIMTVP
 40
0.0
  9
$DIMTIX
 70
     0
  9
$DIMSOXD
 70
     0
  9
$DIMSAH
 70
     0
  9
$DIMBLK1
  1

  9
$DIMBLK2
  1

  9
$DIMSTYLE
  2
AM_ISO
  9
$DIMCLRD
 70
   256
  9
$DIMCLRE
 70
   256
  9
$DIMCLRT
 70
     2
  9
$DIMTFAC
 40
0.71
  9
$DIMGAP
 40
1.5
  9
$DIMJUST
 70
     0
  9
$DIMSD1
 70
     0
  9
$DIMSD2
 70
     0
  9
$DIMTOLJ
 70
     0
  9
$DIMTZIN
 70
     8
  9
$DIMALTZ
 70
     0
  9
$DIMALTTZ
 70
     0
  9
$DIMUPT
 70
     0
  9
$DIMDEC
 70
     2
  9
$DIMTDEC
 70
     3
  9
$DIMALTU
 70
     2
  9
$DIMALTTD
 70
     4
  9
$DIMTXSTY
  7
STANDARD
  9
$DIMAUNIT
 70
     0
  9
$DIMADEC
 70
     0
  9
$DIMALTRND
 40
0.0
  9
$DIMAZIN
 70
     2
  9
$DIMDSEP
 70
    46
  9
$DIMATFIT
 70
     3
  9
$DIMFRAC
 70
     0
  9
$DIMLDRBLK
  1

  9
$DIMLUNIT
 70
     2
  9
$DIMLWD
 70
    -1
  9
$DIMLWE
 70
    -1
  9
$DIMTMOVE
 70
     0
  9
$LUNITS
 70
     2
  9
$LUPREC
 70
     2
  9
$SKETCHINC
 40
1.0
  9
$FILLETRAD
 40
2.5
  9
$AUNITS
 70
     0
  9
$AUPREC
 70
     0
  9
$MENU
  1
.
  9
$ELEVATION
 40
0.0
  9
$PELEVATION
 40
0.0
  9
$THICKNESS
 40
0.0
  9
$LIMCHECK
 70
     0
  9
$CHAMFERA
 40
2.5
  9
$CHAMFERB
 40
2.5
  9
$CHAMFERC
 40
0.0
  9
$CHAMFERD
 40
0.0
  9
$SKPOLY
 70
     0
  9
$TDCREATE
 40
2456115.555956864
  9
$TDUCREATE
 40
2456115.180956863
  9
$TDUPDATE
 40
2456115.563186575
  9
$TDUUPDATE
 40
2456115.188186574
  9
$TDINDWG
 40
0.0072304398
  9
$TDUSRTIMER
 40
0.0072304398
  9
$USRTIMER
 70
     1
  9
$ANGBASE
 50
0.0
  9
$ANGDIR
 70
     0
  9
$PDMODE
 70
     0
  9
$PDSIZE
 40
0.0
  9
$PLINEWID
 40
0.0
  9
$SPLFRAME
 70
     0
  9
$SPLINETYPE
 70
     6
  9
$SPLINESEGS
 70
     8
  9
$HANDSEED
  5
70E
  9
$SURFTAB1
 70
     6
  9
$SURFTAB2
 70
     6
  9
$SURFTYPE
 70
     6
  9
$SURFU
 70
     6
  9
$SURFV
 70
     6
  9
$UCSBASE
  2

  9
$UCSNAME
  2

  9
$UCSORG
 10
0.0
 20
0.0
 30
0.0
  9
$UCSXDIR
 10
1.0
 20
0.0
 30
0.0
  9
$UCSYDIR
 10
0.0
 20
1.0
 30
0.0
  9
$UCSORTHOREF
  2

  9
$UCSORTHOVIEW
 70
     0
  9
$UCSORGTOP
 10
0.0
 20
0.0
 30
0.0
  9
$UCSORGBOTTOM
 10
0.0
 20
0.0
 30
0.0
  9
$UCSORGLEFT
 10
0.0
 20
0.0
 30
0.0
  9
$UCSORGRIGHT
 10
0.0
 20
0.0
 30
0.0
  9
$UCSORGFRONT
 10
0.0
 20
0.0
 30
0.0
  9
$UCSORGBACK
 10
0.0
 20
0.0
 30
0.0
  9
$PUCSBASE
  2

  9
$PUCSNAME
  2

  9
$PUCSORG
 10
0.0
 20
0.0
 30
0.0
  9
$PUCSXDIR
 10
1.0
 20
0.0
 30
0.0
  9
$PUCSYDIR
 10
0.0
 20
1.0
 30
0.0
  9
$PUCSORTHOREF
  2

  9
$PUCSORTHOVIEW
 70
     0
  9
$PUCSORGTOP
 10
0.0
 20
0.0
 30
0.0
  9
$PUCSORGBOTTOM
 10
0.0
 20
0.0
 30
0.0
  9
$PUCSORGLEFT
 10
0.0
 20
0.0
 30
0.0
  9
$PUCSORGRIGHT
 10
0.0
 20
0.0
 30
0.0
  9
$PUCSORGFRONT
 10
0.0
 20
0.0
 30
0.0
  9
$PUCSORGBACK
 10
0.0
 20
0.0
 30
0.0
  9
$USERI1
 70
     0
  9
$USERI2
 70
     0
  9
$USERI3
 70
     0
  9
$USERI4
 70
     0
  9
$USERI5
 70
     0
  9
$USERR1
 40
0.0
  9
$USERR2
 40
0.0
  9
$USERR3
 40
0.0
  9
$USERR4
 40
0.0
  9
$USERR5
 40
0.0
  9
$WORLDVIEW
 70
     1
  9
$SHADEDGE
 70
     3
  9
$SHADEDIF
 70
    70
  9
$TILEMODE
 70
     1
  9
$MAXACTVP
 70
    64
  9
$PINSBASE
 10
0.0
 20
0.0
 30
0.0
  9
$PLIMCHECK
 70
     0
  9
$PEXTMIN
 10
1.000000000000000E+20
 20
1.000000000000000E+20
 30
1.000000000000000E+20
  9
$PEXTMAX
 10
-1.000000000000000E+20
 20
-1.000000000000000E+20
 30
-1.000000000000000E+20
  9
$PLIMMIN
 10
0.0
 20
0.0
  9
$PLIMMAX
 10
420.0
 20
297.0
  9
$UNITMODE
 70
     0
  9
$VISRETAIN
 70
     1
  9
$PLINEGEN
 70
     0
  9
$PSLTSCALE
 70
     1
  9
$TREEDEPTH
 70
  3020
  9
$CMLSTYLE
  2
Standard
  9
$CMLJUST
 70
     0
  9
$CMLSCALE
 40
20.0
  9
$PROXYGRAPHICS
 70
     1
  9
$MEASUREMENT
 70
     1
  9
$CELWEIGHT
370
    -1
  9
$ENDCAPS
280
     0
  9
$JOINSTYLE
280
     0
  9
$LWDISPLAY
290
     0
  9
$INSUNITS
 70
     4
  9
$HYPERLINKBASE
  1

  9
$STYLESHEET
  1

  9
$XEDIT
290
     1
  9
$CEPSNTYPE
380
     0
  9
$PSTYLEMODE
290
     1
  9
$FINGERPRINTGUID
  2
{5AD7C71C-4FD5-4853-B09A-EBB9DBB3B89F}
  9
$VERSIONGUID
  2
{6F43C875-CC5E-47DA-A914-361D143C33EC}
  9
$EXTNAMES
290
     1
  9
$PSVPSCALE
 40
0.0
  9
$OLESTARTUP
290
     0
  9
$SORTENTS
280
   127
  9
$INDEXCTL
280
     0
  9
$HIDETEXT
280
     1
  9
$XCLIPFRAME
290
     0
  9
$HALOGAP
280
     0
  9
$OBSCOLOR
 70
   257
  9
$OBSLTYPE
280
     0
  9
$INTERSECTIONDISPLAY
280
     0
  9
$INTERSECTIONCOLOR
 70
   257
  9
$DIMASSOC
280
     2
  9
$PROJECTNAME
  1

  0
ENDSEC
  0
SECTION
  2
CLASSES
  0
CLASS
  1
ACDBDICTIONARYWDFLT
  2
AcDbDictionaryWithDefault
  3
ObjectDBX Classes
 90
        0
 91
        1
280
     0
281
     0
  0
CLASS
  1
MATERIAL
  2
AcDbMaterial
  3
ObjectDBX Classes
 90
     1153
 91
        3
280
     0
281
     0
  0
CLASS
  1
VISUALSTYLE
  2
AcDbVisualStyle
  3
ObjectDBX Classes
 90
     4095
 91
       25
280
     0
281
     0
  0
CLASS
  1
SCALE
  2
AcDbScale
  3
ObjectDBX Classes
 90
     1153
 91
       17
280
     0
281
     0
  0
CLASS
  1
TABLESTYLE
  2
AcDbTableStyle
  3
ObjectDBX Classes
 90
     4095
 91
        1
280
     0
281
     0
  0
CLASS
  1
MLEADERSTYLE
  2
AcDbMLeaderStyle
  3
ACDB_MLEADERSTYLE_CLASS
 90
     4095
 91
        1
280
     0
281
     0
  0
CLASS
  1
AMGSETTINGSOBJ
  2
AmgSettingsObj
  3
"AcadM|Product Description: AutoCAD Mechanical|Company: Autodesk, Inc."
 90
     1024
 91
        2
280
     0
281
     0
  0
CLASS
  1
ACME_DOCUMENT
  2
AcMeDbDoc
  3
AcMeServices
 90
     1024
 91
        1
280
     0
281
     0
  0
CLASS
  1
ACMESCOPE
  2
AcMeScope
  3
AcMeServices
 90
     1024
 91
        1
280
     0
281
     0
  0
CLASS
  1
ACMECOMMANDHISTORY
  2
AcMeCommandHistory
  3
AcMeServices
 90
     1024
 91
        1
280
     0
281
     0
  0
CLASS
  1
ACIMSYSVARMAN
  2
AcImSysVarManager
  3
AcMeServices
 90
     1024
 91
        3
280
     0
281
     0
  0
CLASS
  1
ACIMINTSYSVAR
  2
AcImIntSysVar
  3
AcMeServices
 90
     1024
 91
        2
280
     0
281
     0
  0
CLASS
  1
ACMESTATEMGR
  2
AcMeStateMgr
  3
AcMeServices
 90
     1024
 91
        1
280
     0
281
     0
  0
CLASS
  1
ACDBENTITYCACHE
  2
AcMeEntityCache
  3
AcMeServices
 90
     1024
 91
        1
280
     0
281
     0
  0
CLASS
  1
ACGREFMASTER
  2
AcGrefMaster
  3
AcAttribServices
 90
     1024
 91
        1
280
     0
281
     0
  0
CLASS
  1
ACME_DATABASE
  2
AcMeDbDatabase
  3
AcMeServices
 90
     1024
 91
        2
280
     0
281
     0
  0
CLASS
  1
ACRFINSADJUSTERMGR
  2
AcRfInsAdjusterMgr
  3
AcMeServices
 90
     1024
 91
        1
280
     0
281
     0
  0
CLASS
  1
ACGREFACADMASTER
  2
AcGrefacadMaster
  3
AcGrefServices
 90
     1024
 91
        1
280
     0
281
     0
  0
CLASS
  1
AMDTMENUSTATEMGR
  2
AmdtMenuStateMgr
  3
McadcomServices
 90
     1024
 91
        1
280
     0
281
     0
  0
CLASS
  1
AMDTMCOMMENUSTATE
  2
AmdtMcomMenuState
  3
McadcomServices
 90
     1024
 91
        1
280
     0
281
     0
  0
CLASS
  1
AMIMASTER
  2
AmiMaster
  3
AmiServices
 90
     1024
 91
        1
280
     0
281
     0
  0
CLASS
  1
MAPIAMMOUDLE
  2
MApiAmModule
  3
MApiAmServices
 90
     1024
 91
        1
280
     0
281
     0
  0
CLASS
  1
ACIMSTRSYSVAR
  2
AcImStrSysVar
  3
AcMeServices
 90
     1024
 91
        5
280
     0
281
     0
  0
CLASS
  1
AMDTAMMENUSTATE
  2
AmdtAmMenuState
  3
DesignerAssemblies
 90
     1024
 91
        1
280
     0
281
     0
  0
CLASS
  1
ACAMPROJECT
  2
AcAmProject
  3
DesignerAssemblies
 90
     1024
 91
        1
280
     0
281
     0
  0
CLASS
  1
ACAMGRCOMPDEF
  2
AcAmGrCompDef
  3
DesignerAssemblies
 90
     1024
 91
        1
280
     0
281
     0
  0
CLASS
  1
ACAMCOMPDEF
  2
AcAmCompDef
  3
DesignerAssemblies
 90
     1024
 91
        1
280
     0
281
     0
  0
CLASS
  1
ACAMCOMPDEFMGR
  2
AcAmCompDefMgr
  3
DesignerAssemblies
 90
     1024
 91
        1
280
     0
281
     0
  0
CLASS
  1
AMCONTEXTMGR
  2
AcAmContextMgr
  3
DesignerAssemblies
 90
     1024
 91
        1
280
     0
281
     0
  0
CLASS
  1
ACAMCONTEXTMODELER
  2
AcAmContextModeler
  3
DesignerAssemblies
 90
     1024
 91
        1
280
     0
281
     0
  0
CLASS
  1
ACMDATADICTIONARY
  2
AcmDataDictionary
  3
"AcmSymBB|Product Description: AutoCAD Mechanical|Company: Autodesk, Inc."
 90
     1024
 91
        1
280
     0
281
     0
  0
CLASS
  1
ACMSTANDARDISO
  2
AcmStandardISO
  3
"Amdt_StdImp|Product Description: AutoCAD Mechanical|Company: Autodesk, Inc."
 90
     1024
 91
        1
280
     0
281
     0
  0
CLASS
  1
AMDTEDGESTANDARDISO13715
  2
AmdtEdgeStdISO13715
  3
"Amdt_StdImp|Product Description: AutoCAD Mechanical|Company: Autodesk, Inc."
 90
     1024
 91
        1
280
     0
281
     0
  0
CLASS
  1
ACMSURFSTANDARDISO2002
  2
AcmSurfTextStdISO2002
  3
"Amdt_StdImp|Product Description: AutoCAD Mechanical|Company: Autodesk, Inc."
 90
     1024
 91
        1
280
     0
281
     0
  0
CLASS
  1
ACMFCFSTANDARDISO2004
  2
AcmFCFStdISO2004
  3
"Amdt_StdImp|Product Description: AutoCAD Mechanical|Company: Autodesk, Inc."
 90
     1024
 91
        1
280
     0
281
     0
  0
CLASS
  1
ACMWELDSTANDARDISO
  2
AcmWeldingStdISO
  3
"Amdt_StdImp|Product Description: AutoCAD Mechanical|Company: Autodesk, Inc."
 90
     1024
 91
        1
280
     0
281
     0
  0
CLASS
  1
ACMIDSTANDARDISO2004
  2
AcmIdStdISO2004
  3
"Amdt_StdImp|Product Description: AutoCAD Mechanical|Company: Autodesk, Inc."
 90
     1024
 91
        1
280
     0
281
     0
  0
CLASS
  1
ACMDATUMSTANDARDISO
  2
AcmDatumStdISO
  3
"Amdt_StdImp|Product Description: AutoCAD Mechanical|Company: Autodesk, Inc."
 90
     1024
 91
        1
280
     0
281
     0
  0
CLASS
  1
ACMBOMSTANDARDISO
  2
AcmBOMStdISO
  3
"Amdt_StdImp|Product Description: AutoCAD Mechanical|Company: Autodesk, Inc."
 90
     1024
 91
        1
280
     0
281
     0
  0
CLASS
  1
ACMDETAILSTANDARDISO
  2
AmdtDetailSymStdISO
  3
"Amdt_StdImp|Product Description: AutoCAD Mechanical|Company: Autodesk, Inc."
 90
     1024
 91
        1
280
     0
281
     0
  0
CLASS
  1
ACMSECTIONSTANDARDISO2001
  2
AmdtSectionSymStdISO2001
  3
"Amdt_StdImp|Product Description: AutoCAD Mechanical|Company: Autodesk, Inc."
 90
     1024
 91
        1
280
     0
281
     0
  0
CLASS
  1
ACMCENTERLINESTANDARDISO
  2
AmdtCenterLineStdISO
  3
"Amdt_StdImp|Product Description: AutoCAD Mechanical|Company: Autodesk, Inc."
 90
     1024
 91
        1
280
     0
281
     0
  0
CLASS
  1
ACMTHREADLINESTANDARDISO
  2
AmdtThreadLineStdISO
  3
"Amdt_StdImp|Product Description: AutoCAD Mechanical|Company: Autodesk, Inc."
 90
     1024
 91
        1
280
     0
281
     0
  0
CLASS
  1
ACMNOTESTANDARDISO
  2
AmdtNoteStdISO
  3
"Amdt_StdImp|Product Description: AutoCAD Mechanical|Company: Autodesk, Inc."
 90
     1024
 91
        1
280
     0
281
     0
  0
CLASS
  1
ACMTAPERSTANDARDISO
  2
AcmTaperStdISO
  3
"Amdt_StdImp|Product Description: AutoCAD Mechanical|Company: Autodesk, Inc."
 90
     1024
 91
        1
280
     0
281
     0
  0
CLASS
  1
ACMANOOTATIONVIEWSTANDARDISO
  2
AmdtAnViewStdISO
  3
"Amdt_StdImp|Product Description: AutoCAD Mechanical|Company: Autodesk, Inc."
 90
     1024
 91
        1
280
     0
281
     0
  0
CLASS
  1
ACAMGLAYSTD
  2
AcAmgLayStd
  3
"AmgLay|Product Description: AutoCAD Mechanical|Company: Autodesk, Inc."
 90
     1024
 91
        1
280
     0
281
     0
  0
CLASS
  1
ACAMGDIMSTD
  2
AcAmgDimStd
  3
"AmgDim|Product Description: AutoCAD Mechanical|Company: Autodesk, Inc."
 90
     1024
 91
        1
280
     0
281
     0
  0
CLASS
  1
AMGOBJPROPCFG
  2
AmgObjPropCfg
  3
"AmgLay|Product Description: AutoCAD Mechanical|Company: Autodesk, Inc."
 90
     1025
 91
        1
280
     0
281
     0
  0
CLASS
  1
ACAMGHOLECHARTSTDISO
  2
AcAmgHoleChartStdISO
  3
AmgDim|Product Description: AutoCAD Mechanical|Company: Autodesk, Inc.
 90
     1024
 91
        1
280
     0
281
     0
  0
CLASS
  1
ACAMGTITLESTD
  2
AcAmgTitleStd
  3
"AmgTitle|Product Description: AutoCAD Mechanical|Company: Autodesk, Inc."
 90
     4095
 91
        1
280
     0
281
     0
  0
CLASS
  1
AMDTNOTETEMPLATEDB
  2
AmdtNoteTemplateDB
  3
AcmSymBB|Product Description: AutoCAD Mechanical|Company: Autodesk, Inc.
 90
     1024
 91
        6
280
     0
281
     0
  0
CLASS
  1
ACAMGRCOMPDEFSET
  2
AcAmGrCompDefSet
  3
DesignerAssemblies
 90
     1024
 91
        1
280
     0
281
     0
  0
CLASS
  1
AMDTBROWSERDBTAB
  2
AmdtBrowserDbTab
  3
McadcomServices
 90
     1024
 91
        1
280
     0
281
     0
  0
CLASS
  1
CBROWSERAPPOBJECT
  2
CBrowserAppObject
  3
McadcomServices
 90
     1024
 91
        2
280
     0
281
     0
  0
CLASS
  1
DM_PLACEHOLDER
  2
AcDmSelsetPlaceholder
  3
McadcomServices
 90
     1024
 91
        1
280
     0
281
     0
  0
CLASS
  1
EXACXREFPANELOBJECT
  2
ExAcXREFPanelObject
  3
EXAC_ESW
 90
     1025
 91
        1
280
     0
281
     0
  0
CLASS
  1
NPOCOLLECTION
  2
AcDbImpNonPersistentObjectsCollection
  3
ObjectDBX Classes
 90
     1153
 91
        1
280
     0
281
     0
  0
CLASS
  1
SORTENTSTABLE
  2
AcDbSortentsTable
  3
ObjectDBX Classes
 90
        0
 91
        1
280
     0
281
     0
  0
CLASS
  1
ACAMGFILTERDAT
  2
AcAmgFilterDat
  3
"AcadM|Product Description: AutoCAD Mechanical|Company: Autodesk, Inc."
 90
     1024
 91
        6
280
     0
281
     0
  0
CLASS
  1
CAMSSTRUCTBTNSTATE
  2
StructBtnState
  3
DesignerAssemblies
 90
     1024
 91
        1
280
     0
281
     0
  0
CLASS
  1
DICTIONARYVAR
  2
AcDbDictionaryVar
  3
ObjectDBX Classes
 90
        0
 91
       19
280
     0
281
     0
  0
CLASS
  1
CELLSTYLEMAP
  2
AcDbCellStyleMap
  3
ObjectDBX Classes
 90
     1152
 91
        2
280
     0
281
     0
  0
ENDSEC
  0
SECTION
  2
TABLES
  0
TABLE
  2
VPORT
  5
8
330
0
100
AcDbSymbolTable
 70
     1
  0
VPORT
  5
57
330
8
100
AcDbSymbolTableRecord
100
AcDbViewportTableRecord
  2
*Active
 70
     0
 10
0.0
 20
0.0
 11
1.0
 21
1.0
 12
11929.85073692949
 22
-10658.86623102529
 13
0.0
 23
0.0
 14
2.5
 24
2.5
 15
10.0
 25
10.0
 16
0.0
 26
0.0
 36
1.0
 17
0.0
 27
0.0
 37
0.0
 40
26276.66960862008
 41
2.360696517412935
 42
50.0
 43
0.0
 44
0.0
 50
0.0
 51
0.0
 71
     0
 72
  1000
 73
     1
 74
     3
 75
     0
 76
     0
 77
     0
 78
     0
281
     0
 65
     0
110
0.0
120
0.0
130
0.0
111
1.0
121
0.0
131
0.0
112
0.0
122
1.0
132
0.0
 79
     0
146
0.0
1001
ACAD_NAV_VCDISPLAY
1070
     1
  0
ENDTAB
  0
TABLE
  2
LTYPE
  5
5
330
0
100
AcDbSymbolTable
 70
    16
  0
LTYPE
  5
5B
330
5
100
AcDbSymbolTableRecord
100
AcDbLinetypeTableRecord
  2
ByBlock
 70
     0
  3

 72
    65
 73
     0
 40
0.0
  0
LTYPE
  5
5C
330
5
100
AcDbSymbolTableRecord
100
AcDbLinetypeTableRecord
  2
ByLayer
 70
     0
  3

 72
    65
 73
     0
 40
0.0
  0
LTYPE
  5
5D
330
5
100
AcDbSymbolTableRecord
100
AcDbLinetypeTableRecord
  2
Continuous
 70
     0
  3
Solid line
 72
    65
 73
     0
 40
0.0
  0
LTYPE
  5
84
330
5
100
AcDbSymbolTableRecord
100
AcDbLinetypeTableRecord
  2
HIDDEN
 70
     0
  3
Hidden __ __ __ __ __ __ __ __ __ __ __ __ __ _
 72
    65
 73
     2
 40
9.524999999999998
 49
6.349999999999999
 74
     0
 49
-3.174999999999999
 74
     0
  0
LTYPE
  5
85
330
5
100
AcDbSymbolTableRecord
100
AcDbLinetypeTableRecord
  2
PHANTOM2
 70
     0
  3
Phantom (.5x) ___ _ _ ___ _ _ ___ _ _ ___ _ _
 72
    65
 73
     6
 40
31.75
 49
15.875
 74
     0
 49
-3.174999999999999
 74
     0
 49
3.174999999999999
 74
     0
 49
-3.174999999999999
 74
     0
 49
3.174999999999999
 74
     0
 49
-3.174999999999999
 74
     0
  0
LTYPE
  5
86
330
5
100
AcDbSymbolTableRecord
100
AcDbLinetypeTableRecord
  2
CENTER
 70
     0
  3
Center ____ _ ____ _ ____ _ ____ _ ____ _ ____
 72
    65
 73
     4
 40
50.8
 49
31.75
 74
     0
 49
-6.349999999999999
 74
     0
 49
6.349999999999999
 74
     0
 49
-6.349999999999999
 74
     0
  0
LTYPE
  5
BC
330
5
100
AcDbSymbolTableRecord
100
AcDbLinetypeTableRecord
  2
AM_ISO02W050
 70
     0
  3
__ __ __ __ __ __ __ __ __ __ __ __ __ __ __
 72
    65
 73
     2
 40
7.5
 49
6.0
 74
     0
 49
-1.5
 74
     0
  0
LTYPE
  5
BD
330
5
100
AcDbSymbolTableRecord
100
AcDbLinetypeTableRecord
  2
AM_ISO08W050
 70
     0
  3
____ . ____ . ____ . ____ . ____ . ____ . ____
 72
    65
 73
     4
 40
18.0
 49
12.0
 74
     0
 49
-1.5
 74
     0
 49
3.0
 74
     0
 49
-1.5
 74
     0
  0
LTYPE
  5
BE
330
5
100
AcDbSymbolTableRecord
100
AcDbLinetypeTableRecord
  2
AM_ISO09W050
 70
     0
  3
_____ . . _____ . . _____ . . ____ .. ____
 72
    65
 73
     6
 40
22.5
 49
12.0
 74
     0
 49
-1.5
 74
     0
 49
3.0
 74
     0
 49
-1.5
 74
     0
 49
3.0
 74
     0
 49
-1.5
 74
     0
  0
LTYPE
  5
BF
330
5
100
AcDbSymbolTableRecord
100
AcDbLinetypeTableRecord
  2
Amconstr
 70
     0
  3
_______________________
 72
    65
 73
     2
 40
9999.0
 49
9999.0
 74
     0
 49
0.0
 74
     0
  0
LTYPE
  5
C0
330
5
100
AcDbSymbolTableRecord
100
AcDbLinetypeTableRecord
  2
AM_ISO08W050x2
 70
     0
  3
__ . __ . __ . __ . __ . __
 72
    65
 73
     4
 40
9.0
 49
6.0
 74
     0
 49
-0.75
 74
     0
 49
1.5
 74
     0
 49
-0.75
 74
     0
  0
LTYPE
  5
C1
330
5
100
AcDbSymbolTableRecord
100
AcDbLinetypeTableRecord
  2
AM_ISO02W050x2
 70
     0
  3
 _ _ _ _ _ _ _ _ _ _ _ _
 72
    65
 73
     2
 40
3.75
 49
3.0
 74
     0
 49
-0.75
 74
     0
  0
LTYPE
  5
C4
330
5
100
AcDbSymbolTableRecord
100
AcDbLinetypeTableRecord
  2
Amzigzag
 70
     0
  3
/\/-/\/-/\/-/\/-/\/-/\/
 72
    65
 73
     2
 40
11.0001
 49
0.0001
 74
     4
 75
   136
340
C3
 46
0.04
 50
0.0
 44
0.0
 45
0.0
 49
-11.0
 74
     0
  0
LTYPE
  5
D3
330
5
100
AcDbSymbolTableRecord
100
AcDbLinetypeTableRecord
  2
ACISOWELD
 70
     0
  3
_ _ _ _ _
 72
    65
 73
     2
 40
2.0
 49
2.0
 74
     0
 49
-1.0
 74
     0
  0
LTYPE
  5
D4
330
5
100
AcDbSymbolTableRecord
100
AcDbLinetypeTableRecord
  2
ACISOTGL
 70
     0
  3
_ _ _ _ _
 72
    65
 73
     2
 40
3.0
 49
2.0
 74
     0
 49
-1.0
 74
     0
  0
LTYPE
  5
D5
330
5
100
AcDbSymbolTableRecord
100
AcDbLinetypeTableRecord
  2
ACISOTGB
 70
     0
  3
__ . . __ . .
 72
    65
 73
     6
 40
9.0
 49
4.0
 74
     0
 49
-1.0
 74
     0
 49
1.0
 74
     0
 49
-1.0
 74
     0
 49
1.0
 74
     0
 49
-1.0
 74
     0
  0
LTYPE
  5
E7
330
5
100
AcDbSymbolTableRecord
100
AcDbLinetypeTableRecord
  2
L20
 70
     0
  3
-- -- -- -- 2,-1,2,-1
 72
    65
 73
     4
 40
6.0
 49
2.0
 74
     0
 49
-1.0
 74
     0
 49
2.0
 74
     0
 49
-1.0
 74
     0
  0
ENDTAB
  0
TABLE
  2
LAYER
  5
2
102
{ACAD_XDICTIONARY
360
FC
102
}
330
0
100
AcDbSymbolTable
 70
     6
  0
LAYER
  5
54
330
2
100
AcDbSymbolTableRecord
100
AcDbLayerTableRecord
  2
0
 70
     0
 62
     7
  6
Continuous
370
    -3
390
F
  0
LAYER
  5
E8
102
{ACAD_XDICTIONARY
360
E9
102
}
330
2
100
AcDbSymbolTableRecord
100
AcDbLayerTableRecord
  2
4
 70
     0
 62
     3
  6
Continuous
370
     0
390
F
  0
LAYER
  5
EA
102
{ACAD_XDICTIONARY
360
EB
102
}
330
2
100
AcDbSymbolTableRecord
100
AcDbLayerTableRecord
  2
SUNPO
 70
     0
 62
     1
  6
Continuous
370
    -3
390
F
  0
LAYER
  5
EC
102
{ACAD_XDICTIONARY
360
ED
102
}
330
2
100
AcDbSymbolTableRecord
100
AcDbLayerTableRecord
  2
MOJI
 70
     0
 62
     7
  6
Continuous
370
    -3
390
F
  0
LAYER
  5
EE
102
{ACAD_XDICTIONARY
360
EF
102
}
330
2
100
AcDbSymbolTableRecord
100
AcDbLayerTableRecord
  2
SEN
 70
     0
 62
     6
  6
Continuous
370
    -3
390
F
  0
LAYER
  5
F0
102
{ACAD_XDICTIONARY
360
F1
102
}
330
2
100
AcDbSymbolTableRecord
100
AcDbLayerTableRecord
  2
1
 70
     0
 62
    14
  6
Continuous
370
    -3
390
F
  0
ENDTAB
  0
TABLE
  2
STYLE
  5
3
330
0
100
AcDbSymbolTable
 70
     8
  0
STYLE
  5
55
330
3
100
AcDbSymbolTableRecord
100
AcDbTextStyleTableRecord
  2
STANDARD
 70
     0
 40
0.0
 41
1.0
 50
0.0
 71
     0
 42
2.5
  3
ISOCP.SHX
  4
EXTFONT.SHX
  0
STYLE
  5
5A
330
3
100
AcDbSymbolTableRecord
100
AcDbTextStyleTableRecord
  2
Annotative
 70
     0
 40
0.0
 41
1.0
 50
0.0
 71
     0
 42
0.2
  3
txt
  4

1001
AcadAnnotative
1000
AnnotativeData
1002
{
1070
     1
1070
     1
1002
}
  0
STYLE
  5
C3
330
3
100
AcDbSymbolTableRecord
100
AcDbTextStyleTableRecord
  2

 70
     1
 40
0.0
 41
1.0
 50
0.0
 71
     0
 42
2.5
  3
genltshp.shx
  4

  0
STYLE
  5
D1
330
3
100
AcDbSymbolTableRecord
100
AcDbTextStyleTableRecord
  2
ACISOTS
 70
     0
 40
1.0
 41
1.0
 50
0.0
 71
     0
 42
2.5
  3
isocp.shx
  4
extfont.shx
  0
STYLE
  5
D2
330
3
100
AcDbSymbolTableRecord
100
AcDbTextStyleTableRecord
  2
ACISOGDT
 70
     0
 40
0.0
 41
1.0
 50
0.0
 71
     0
 42
2.5
  3
amgdt.shx
  4

  0
STYLE
  5
E3
330
3
100
AcDbSymbolTableRecord
100
AcDbTextStyleTableRecord
  2
USER1
 70
     0
 40
0.0
 41
1.0
 50
0.0
 71
     0
 42
2.5
  3
TXT.SHX
  4

  0
STYLE
  5
E4
330
3
100
AcDbSymbolTableRecord
100
AcDbTextStyleTableRecord
  2
USER2
 70
     0
 40
0.0
 41
1.0
 50
0.0
 71
     0
 42
2.5
  3
SIMPLEX.SHX
  4

  0
STYLE
  5
E5
330
3
100
AcDbSymbolTableRecord
100
AcDbTextStyleTableRecord
  2
USER3
 70
     0
 40
0.0
 41
1.0
 50
0.0
 71
     0
 42
2.5
  3
ITALIC.SHX
  4

  0
ENDTAB
  0
TABLE
  2
VIEW
  5
6
330
0
100
AcDbSymbolTable
 70
     0
  0
ENDTAB
  0
TABLE
  2
UCS
  5
7
330
0
100
AcDbSymbolTable
 70
     0
  0
ENDTAB
  0
TABLE
  2
APPID
  5
9
330
0
100
AcDbSymbolTable
 70
    25
  0
APPID
  5
56
330
9
100
AcDbSymbolTableRecord
100
AcDbRegAppTableRecord
  2
ACAD
 70
     0
  0
APPID
  5
5E
330
9
100
AcDbSymbolTableRecord
100
AcDbRegAppTableRecord
  2
AcadAnnotative
 70
     0
  0
APPID
  5
76
330
9
100
AcDbSymbolTableRecord
100
AcDbRegAppTableRecord
  2
ACAD_NAV_VCDISPLAY
 70
     0
  0
APPID
  5
7D
330
9
100
AcDbSymbolTableRecord
100
AcDbRegAppTableRecord
  2
MCAD_NO_VIS
 70
     0
  0
APPID
  5
7E
330
9
100
AcDbSymbolTableRecord
100
AcDbRegAppTableRecord
  2
ACAD_TEMP_GRAPHIC
 70
     0
  0
APPID
  5
8B
330
9
100
AcDbSymbolTableRecord
100
AcDbRegAppTableRecord
  2
ACATTRIBSERVICES
 70
     0
  0
APPID
  5
A3
330
9
100
AcDbSymbolTableRecord
100
AcDbRegAppTableRecord
  2
DESIGNERASSEMBLIES
 70
     0
  0
APPID
  5
B9
330
9
100
AcDbSymbolTableRecord
100
AcDbRegAppTableRecord
  2
ACAD_DSTYLE_DIMJAG
 70
     0
  0
APPID
  5
BA
330
9
100
AcDbSymbolTableRecord
100
AcDbRegAppTableRecord
  2
ACAD_DSTYLE_DIMBREAK
 70
     0
  0
APPID
  5
F2
330
9
100
AcDbSymbolTableRecord
100
AcDbRegAppTableRecord
  2
GENIUS_GENODEF_13
 70
     0
  0
APPID
  5
F3
330
9
100
AcDbSymbolTableRecord
100
AcDbRegAppTableRecord
  2
GENIUS_GENOBJ-N-FIL_13
 70
     0
  0
APPID
  5
F4
330
9
100
AcDbSymbolTableRecord
100
AcDbRegAppTableRecord
  2
GENIUS_GENOBJ-N-CEN_13
 70
     0
  0
APPID
  5
F5
330
9
100
AcDbSymbolTableRecord
100
AcDbRegAppTableRecord
  2
GENIUS_GENFIL_13
 70
     0
  0
APPID
  5
F6
330
9
100
AcDbSymbolTableRecord
100
AcDbRegAppTableRecord
  2
GENIUS_GENOBJ-N-CHA_13
 70
     0
  0
APPID
  5
F7
330
9
100
AcDbSymbolTableRecord
100
AcDbRegAppTableRecord
  2
ACAD_PSEXT
 70
     0
  0
APPID
  5
F8
330
9
100
AcDbSymbolTableRecord
100
AcDbRegAppTableRecord
  2
AD_DRAW
 70
     0
  0
APPID
  5
F9
330
9
100
AcDbSymbolTableRecord
100
AcDbRegAppTableRecord
  2
ACADM_DIM_EDIT
 70
     0
  0
APPID
  5
FA
330
9
100
AcDbSymbolTableRecord
100
AcDbRegAppTableRecord
  2
AMDT_DM_ADJ
 70
     0
  0
APPID
  5
66C
330
9
100
AcDbSymbolTableRecord
100
AcDbRegAppTableRecord
  2
ACAD_EXEMPT_FROM_CAD_STANDARDS
 70
     0
  0
APPID
  5
705
330
9
100
AcDbSymbolTableRecord
100
AcDbRegAppTableRecord
  2
ACAD_DSTYLE_DIMJOGGED_JOGANGLE_SYMBOL
 70
     0
  0
APPID
  5
707
330
9
100
AcDbSymbolTableRecord
100
AcDbRegAppTableRecord
  2
ACAD_MLEADERVER
 70
     0
  0
APPID
  5
708
330
9
100
AcDbSymbolTableRecord
100
AcDbRegAppTableRecord
  2
ACAD_DSTYLE_DIMARC_LENGTH_SYMBOL
 70
     0
  0
APPID
  5
709
330
9
100
AcDbSymbolTableRecord
100
AcDbRegAppTableRecord
  2
ACAD_DSTYLE_DIM_LINETYPE
 70
     0
  0
APPID
  5
70A
330
9
100
AcDbSymbolTableRecord
100
AcDbRegAppTableRecord
  2
ACAD_DSTYLE_DIM_EXT1_LINETYPE
 70
     0
  0
APPID
  5
70B
330
9
100
AcDbSymbolTableRecord
100
AcDbRegAppTableRecord
  2
ACAD_DSTYLE_DIM_EXT2_LINETYPE
 70
     0
  0
ENDTAB
  0
TABLE
  2
DIMSTYLE
  5
A
330
0
100
AcDbSymbolTable
 70
     9
100
AcDbDimStyleTable
 71
     1
340
B8
  0
DIMSTYLE
105
58
330
A
100
AcDbSymbolTableRecord
100
AcDbDimStyleTableRecord
  2
ISO-25
 70
     0
 41
2.5
 42
0.625
 43
3.75
 44
1.25
 73
     0
 74
     0
 77
     1
 78
     8
140
2.5
141
2.5
143
0.03937007874016
147
0.625
171
     3
172
     1
271
     2
272
     2
274
     3
283
     0
284
     8
340
55
1001
ACAD_DSTYLE_DIMJOGGED_JOGANGLE_SYMBOL
1070
   384
1040
1.570796326794896
  0
DIMSTYLE
105
59
330
A
100
AcDbSymbolTableRecord
100
AcDbDimStyleTableRecord
  2
Annotative
 70
     0
340
55
1001
AcadAnnotative
1000
AnnotativeData
1002
{
1070
     1
1070
     1
1002
}
  0
DIMSTYLE
105
B8
102
{ACAD_REACTORS
330
A7
102
}
330
A
100
AcDbSymbolTableRecord
100
AcDbDimStyleTableRecord
  2
AM_ISO
 70
     0
  4
"
 41
3.5
 42
1.0
 43
10.0
 44
1.0
 47
0.1
 48
0.1
 73
     0
 74
     0
 77
     1
 78
     8
 79
     2
140
3.5
141
0.0
143
0.0393701
146
0.71
147
1.5
172
     1
176
   256
177
   256
178
     2
271
     2
272
     3
274
     4
283
     0
284
     8
340
55
371
    -1
372
    -1
1001
ACAD_DSTYLE_DIMJAG
1070
   388
1040
1.5
1001
ACAD_DSTYLE_DIMBREAK
1070
   391
1040
3.75
1001
ACAD_DSTYLE_DIMARC_LENGTH_SYMBOL
1070
   379
1070
     1
1001
ACAD_DSTYLE_DIM_LINETYPE
1070
   380
1005
5B
1001
ACAD_DSTYLE_DIM_EXT1_LINETYPE
1070
   381
1005
5B
1001
ACAD_DSTYLE_DIM_EXT2_LINETYPE
1070
   382
1005
5B
  0
DIMSTYLE
105
C5
330
A
100
AcDbSymbolTableRecord
100
AcDbDimStyleTableRecord
  2
AM_ISO$3
 70
     0
  4
"
 41
3.5
 42
1.0
 43
10.0
 44
1.0
 47
0.1
 48
0.1
 73
     0
 77
     1
 78
     8
 79
     2
140
3.5
141
0.0
143
0.0393701
146
0.71
147
1.5
176
   256
177
   256
178
     2
271
     2
272
     3
274
     4
283
     0
284
     8
288
     1
289
     0
340
55
371
    -1
372
    -1
1001
ACAD_DSTYLE_DIMBREAK
1070
   391
1040
3.75
1001
ACAD_DSTYLE_DIMJAG
1070
   388
1040
1.5
1001
ACAD_DSTYLE_DIMARC_LENGTH_SYMBOL
1070
   379
1070
     1
1001
ACAD_DSTYLE_DIM_LINETYPE
1070
   380
1005
5B
1001
ACAD_DSTYLE_DIM_EXT1_LINETYPE
1070
   381
1005
5B
1001
ACAD_DSTYLE_DIM_EXT2_LINETYPE
1070
   382
1005
5B
  0
DIMSTYLE
105
C6
330
A
100
AcDbSymbolTableRecord
100
AcDbDimStyleTableRecord
  2
AM_ISO$4
 70
     0
  4
"
 41
3.5
 42
1.0
 43
10.0
 44
1.0
 47
0.1
 48
0.1
 73
     0
 77
     1
 78
     8
 79
     2
140
3.5
141
0.0
143
0.0393701
146
0.71
147
1.5
176
   256
177
   256
178
     2
271
     2
272
     3
274
     4
283
     0
284
     8
288
     1
289
     0
340
55
371
    -1
372
    -1
1001
ACAD_DSTYLE_DIMBREAK
1070
   391
1040
3.75
1001
ACAD_DSTYLE_DIMJAG
1070
   388
1040
1.5
1001
ACAD_DSTYLE_DIMARC_LENGTH_SYMBOL
1070
   379
1070
     1
1001
ACAD_DSTYLE_DIM_LINETYPE
1070
   380
1005
5B
1001
ACAD_DSTYLE_DIM_EXT1_LINETYPE
1070
   381
1005
5B
1001
ACAD_DSTYLE_DIM_EXT2_LINETYPE
1070
   382
1005
5B
  0
DIMSTYLE
105
C7
330
A
100
AcDbSymbolTableRecord
100
AcDbDimStyleTableRecord
  2
AM_ISO$6
 70
     0
  4
"
 41
3.5
 42
1.0
 43
10.0
 44
1.0
 47
0.1
 48
0.1
 73
     0
 74
     0
 78
     8
 79
     2
140
3.5
141
0.0
143
0.0393701
146
0.71
147
1.5
172
     1
176
   256
177
   256
178
     2
271
     2
272
     3
274
     4
283
     0
284
     8
340
55
371
    -1
372
    -1
1001
ACAD_DSTYLE_DIMBREAK
1070
   391
1040
3.75
1001
ACAD_DSTYLE_DIMJAG
1070
   388
1040
1.5
1001
ACAD_DSTYLE_DIMARC_LENGTH_SYMBOL
1070
   379
1070
     1
1001
ACAD_DSTYLE_DIM_LINETYPE
1070
   380
1005
5B
1001
ACAD_DSTYLE_DIM_EXT1_LINETYPE
1070
   381
1005
5B
1001
ACAD_DSTYLE_DIM_EXT2_LINETYPE
1070
   382
1005
5B
  0
DIMSTYLE
105
C8
330
A
100
AcDbSymbolTableRecord
100
AcDbDimStyleTableRecord
  2
AM_ISO$7
 70
     0
  4
"
 41
3.5
 42
1.0
 43
10.0
 44
1.0
 47
0.1
 48
0.1
 73
     0
 74
     0
 77
     1
 78
     8
 79
     2
140
3.5
141
0.0
143
0.0393701
146
0.71
147
1.5
172
     1
176
   256
177
   256
178
     2
271
     2
272
     3
274
     4
283
     0
284
     8
340
55
371
    -1
372
    -1
1001
ACAD_DSTYLE_DIMBREAK
1070
   391
1040
3.75
1001
ACAD_DSTYLE_DIMJAG
1070
   388
1040
1.5
1001
ACAD_DSTYLE_DIMARC_LENGTH_SYMBOL
1070
   379
1070
     1
1001
ACAD_DSTYLE_DIM_LINETYPE
1070
   380
1005
5B
1001
ACAD_DSTYLE_DIM_EXT1_LINETYPE
1070
   381
1005
5B
1001
ACAD_DSTYLE_DIM_EXT2_LINETYPE
1070
   382
1005
5B
  0
DIMSTYLE
105
C9
330
A
100
AcDbSymbolTableRecord
100
AcDbDimStyleTableRecord
  2
AM_ISO$SF
 70
     0
  4
"
 41
3.5
 42
1.0
 43
10.0
 44
1.0
 47
0.1
 48
0.1
 73
     0
 74
     0
 75
     1
 76
     1
 77
     1
 78
     8
 79
     2
140
3.5
141
0.0
143
0.0393701
146
0.71
147
1.5
172
     1
176
   256
177
   256
178
     2
271
     2
272
     3
274
     4
283
     0
284
     8
340
55
371
    -1
372
    -1
1001
ACAD_DSTYLE_DIMBREAK
1070
   391
1040
3.75
1001
ACAD_DSTYLE_DIMJAG
1070
   388
1040
1.5
1001
ACAD_DSTYLE_DIMARC_LENGTH_SYMBOL
1070
   379
1070
     1
1001
ACAD_DSTYLE_DIM_LINETYPE
1070
   380
1005
5B
1001
ACAD_DSTYLE_DIM_EXT1_LINETYPE
1070
   381
1005
5B
1001
ACAD_DSTYLE_DIM_EXT2_LINETYPE
1070
   382
1005
5B
  0
DIMSTYLE
105
CE
330
A
100
AcDbSymbolTableRecord
100
AcDbDimStyleTableRecord
  2
AM_ISO$SH
 70
     0
  4
"
 41
3.5
 42
1.0
 43
10.0
 44
1.0
 47
0.1
 48
0.1
 73
     0
 74
     0
 75
     1
 76
     1
 77
     1
 78
     8
 79
     2
140
3.5
141
0.0
143
0.0393701
144
2.0
146
0.71
147
1.5
172
     1
173
     1
176
   256
177
   256
178
     2
271
     2
272
     3
274
     4
283
     0
284
     8
340
55
343
CA
371
    -1
372
    -1
1001
ACAD_DSTYLE_DIMBREAK
1070
   391
1040
3.75
1001
ACAD_DSTYLE_DIMJAG
1070
   388
1040
1.5
1001
ACAD_DSTYLE_DIMARC_LENGTH_SYMBOL
1070
   379
1070
     1
1001
ACAD_DSTYLE_DIM_LINETYPE
1070
   380
1005
5B
1001
ACAD_DSTYLE_DIM_EXT1_LINETYPE
1070
   381
1005
5B
1001
ACAD_DSTYLE_DIM_EXT2_LINETYPE
1070
   382
1005
5B
  0
ENDTAB
  0
TABLE
  2
BLOCK_RECORD
  5
1
330
0
100
AcDbSymbolTable
 70
     4
  0
BLOCK_RECORD
  5
6C
330
1
100
AcDbSymbolTableRecord
100
AcDbBlockTableRecord
  2
*Model_Space
340
6F
  0
BLOCK_RECORD
  5
68
330
1
100
AcDbSymbolTableRecord
100
AcDbBlockTableRecord
  2
*Paper_Space
340
6B
  0
BLOCK_RECORD
  5
70
330
1
100
AcDbSymbolTableRecord
100
AcDbBlockTableRecord
  2
*Paper_Space0
340
73
  0
BLOCK_RECORD
  5
CA
330
1
100
AcDbSymbolTableRecord
100
AcDbBlockTableRecord
  2
GENAXEH
340
0
  0
ENDTAB
  0
ENDSEC
  0
SECTION
  2
BLOCKS
  0
BLOCK
  5
6D
330
6C
100
AcDbEntity
  8
0
100
AcDbBlockBegin
  2
*Model_Space
 70
     0
 10
0.0
 20
0.0
 30
0.0
  3
*Model_Space
  1

  0
ENDBLK
  5
6E
330
6C
100
AcDbEntity
  8
0
100
AcDbBlockEnd
  0
BLOCK
  5
69
330
68
100
AcDbEntity
 67
     1
  8
0
100
AcDbBlockBegin
  2
*Paper_Space
 70
     0
 10
0.0
 20
0.0
 30
0.0
  3
*Paper_Space
  1

  0
ENDBLK
  5
6A
330
68
100
AcDbEntity
 67
     1
  8
0
100
AcDbBlockEnd
  0
BLOCK
  5
71
330
70
100
AcDbEntity
 67
     1
  8
0
100
AcDbBlockBegin
  2
*Paper_Space0
 70
     0
 10
0.0
 20
0.0
 30
0.0
  3
*Paper_Space0
  1

  0
ENDBLK
  5
72
330
70
100
AcDbEntity
 67
     1
  8
0
100
AcDbBlockEnd
  0
BLOCK
  5
CC
330
CA
100
AcDbEntity
  8
0
100
AcDbBlockBegin
  2
GENAXEH
 70
     0
 10
0.0
 20
0.0
 30
0.0
  3
GENAXEH
  1

  0
LINE
  5
CB
330
CA
100
AcDbEntity
  8
0
100
AcDbLine
 10
-1.0
 20
0.0
 30
0.0
 11
1.0
 21
0.0
 31
0.0
  0
ENDBLK
  5
CD
330
CA
100
AcDbEntity
  8
0
100
AcDbBlockEnd
  0
ENDSEC
  0
SECTION
  2
ENTITIES
  0
LINE
  5
3BA
330
6C
100
AcDbEntity
  8
SEN
  6
Continuous
 62
     1
100
AcDbLine
 10
11500.2285754295
 20
-23100.00003801614
 30
0.0
 11
23500.2285754295
 21
-23100.00003801614
 31
0.0
  0
LINE
  5
3BB
330
6C
100
AcDbEntity
  8
SEN
  6
Continuous
 62
     1
100
AcDbLine
 10
11500.2285754295
 20
-22500.00003801614
 30
0.0
 11
23500.2285754295
 21
-22500.00003801614
 31
0.0
  0
LINE
  5
3BC
330
6C
100
AcDbEntity
  8
SEN
  6
Continuous
 62
     2
100
AcDbLine
 10
11500.2285754295
 20
-23700.00003801614
 30
0.0
 11
23500.2285754295
 21
-23700.00003801614
 31
0.0
  0
LINE
  5
3BD
330
6C
100
AcDbEntity
  8
SEN
  6
Continuous
 62
     1
100
AcDbLine
 10
11500.2285754295
 20
-20700.00003801613
 30
0.0
 11
23500.2285754295
 21
-20700.00003801613
 31
0.0
  0
LINE
  5
3BE
330
6C
100
AcDbEntity
  8
SEN
  6
Continuous
 62
     1
100
AcDbLine
 10
11500.2285754295
 20
-21300.00003801614
 30
0.0
 11
23500.2285754295
 21
-21300.00003801614
 31
0.0
  0
LINE
  5
3BF
330
6C
100
AcDbEntity
  8
SEN
  6
Continuous
 62
     1
100
AcDbLine
 10
11500.2285754295
 20
-21900.00003801614
 30
0.0
 11
23500.2285754295
 21
-21900.00003801614
 31
0.0
  0
LINE
  5
3C0
330
6C
100
AcDbEntity
  8
SEN
  6
Continuous
 62
     1
100
AcDbLine
 10
11500.2285754295
 20
-20100.00003801614
 30
0.0
 11
23500.2285754295
 21
-20100.00003801614
 31
0.0
  0
LINE
  5
3C1
330
6C
100
AcDbEntity
  8
SEN
  6
Continuous
 62
     1
100
AcDbLine
 10
11500.2285754295
 20
-19500.00003801613
 30
0.0
 11
23500.2285754295
 21
-19500.00003801613
 31
0.0
  0
LINE
  5
3C2
330
6C
100
AcDbEntity
  8
SEN
  6
Continuous
 62
     1
100
AcDbLine
 10
11500.2285754295
 20
-17700.00003801613
 30
0.0
 11
23500.2285754295
 21
-17700.00003801613
 31
0.0
  0
LINE
  5
3C3
330
6C
100
AcDbEntity
  8
SEN
  6
Continuous
 62
     1
100
AcDbLine
 10
11500.2285754295
 20
-18300.00003801614
 30
0.0
 11
23500.2285754295
 21
-18300.00003801614
 31
0.0
  0
LINE
  5
3C4
330
6C
100
AcDbEntity
  8
SEN
  6
Continuous
 62
     1
100
AcDbLine
 10
11500.2285754295
 20
-18900.00003801613
 30
0.0
 11
23500.2285754295
 21
-18900.00003801613
 31
0.0
  0
LINE
  5
3C5
330
6C
100
AcDbEntity
  8
SEN
  6
Continuous
 62
     1
100
AcDbLine
 10
11500.2285754295
 20
-12900.00003801613
 30
0.0
 11
23500.2285754295
 21
-12900.00003801613
 31
0.0
  0
LINE
  5
3C6
330
6C
100
AcDbEntity
  8
SEN
  6
Continuous
 62
     1
100
AcDbLine
 10
11500.2285754295
 20
-12300.00003801613
 30
0.0
 11
23500.2285754295
 21
-12300.00003801613
 31
0.0
  0
LINE
  5
3C7
330
6C
100
AcDbEntity
  8
SEN
  6
Continuous
 62
     1
100
AcDbLine
 10
11500.2285754295
 20
-11700.00003801613
 30
0.0
 11
23500.2285754295
 21
-11700.00003801613
 31
0.0
  0
LINE
  5
3C8
330
6C
100
AcDbEntity
  8
SEN
  6
Continuous
 62
     1
100
AcDbLine
 10
11500.2285754295
 20
-13500.00003801614
 30
0.0
 11
23500.2285754295
 21
-13500.00003801614
 31
0.0
  0
LINE
  5
3C9
330
6C
100
AcDbEntity
  8
SEN
  6
Continuous
 62
     1
100
AcDbLine
 10
11500.2285754295
 20
-14100.00003801613
 30
0.0
 11
23500.2285754295
 21
-14100.00003801613
 31
0.0
  0
LINE
  5
3CA
330
6C
100
AcDbEntity
  8
SEN
  6
Continuous
 62
     1
100
AcDbLine
 10
11500.2285754295
 20
-17100.00003801613
 30
0.0
 11
23500.2285754295
 21
-17100.00003801613
 31
0.0
  0
LINE
  5
3CB
330
6C
100
AcDbEntity
  8
SEN
  6
Continuous
 62
     1
100
AcDbLine
 10
11500.2285754295
 20
-16500.00003801614
 30
0.0
 11
23500.2285754295
 21
-16500.00003801614
 31
0.0
  0
LINE
  5
3CC
330
6C
100
AcDbEntity
  8
SEN
  6
Continuous
 62
     1
100
AcDbLine
 10
11500.2285754295
 20
-14700.00003801613
 30
0.0
 11
23500.2285754295
 21
-14700.00003801613
 31
0.0
  0
LINE
  5
3CD
330
6C
100
AcDbEntity
  8
SEN
  6
Continuous
 62
     1
100
AcDbLine
 10
11500.2285754295
 20
-15300.00003801613
 30
0.0
 11
23500.2285754295
 21
-15300.00003801613
 31
0.0
  0
LINE
  5
3CE
330
6C
100
AcDbEntity
  8
SEN
  6
Continuous
 62
     1
100
AcDbLine
 10
11500.2285754295
 20
-15900.00003801613
 30
0.0
 11
23500.2285754295
 21
-15900.00003801613
 31
0.0
  0
LINE
  5
3CF
330
6C
100
AcDbEntity
  8
SEN
  6
Continuous
 62
     1
100
AcDbLine
 10
11500.2285754295
 20
-6900.000038016144
 30
0.0
 11
23500.2285754295
 21
-6900.000038016144
 31
0.0
  0
LINE
  5
3D0
330
6C
100
AcDbEntity
  8
SEN
  6
Continuous
 62
     1
100
AcDbLine
 10
11500.2285754295
 20
-6300.000038016143
 30
0.0
 11
23500.2285754295
 21
-6300.000038016143
 31
0.0
  0
LINE
  5
3D1
330
6C
100
AcDbEntity
  8
SEN
  6
Continuous
 62
     1
100
AcDbLine
 10
11500.2285754295
 20
-7500.000038016136
 30
0.0
 11
23500.2285754295
 21
-7500.000038016136
 31
0.0
  0
LINE
  5
3D2
330
6C
100
AcDbEntity
  8
SEN
  6
Continuous
 62
     1
100
AcDbLine
 10
11500.2285754295
 20
-8100.000038016137
 30
0.0
 11
23500.2285754295
 21
-8100.000038016137
 31
0.0
  0
LINE
  5
3D3
330
6C
100
AcDbEntity
  8
SEN
  6
Continuous
 62
     1
100
AcDbLine
 10
11500.2285754295
 20
-11100.00003801614
 30
0.0
 11
23500.2285754295
 21
-11100.00003801614
 31
0.0
  0
LINE
  5
3D4
330
6C
100
AcDbEntity
  8
SEN
  6
Continuous
 62
     1
100
AcDbLine
 10
11500.2285754295
 20
-10500.00003801613
 30
0.0
 11
23500.2285754295
 21
-10500.00003801613
 31
0.0
  0
LINE
  5
3D5
330
6C
100
AcDbEntity
  8
SEN
  6
Continuous
 62
     1
100
AcDbLine
 10
11500.2285754295
 20
-8700.000038016137
 30
0.0
 11
23500.2285754295
 21
-8700.000038016137
 31
0.0
  0
LINE
  5
3D6
330
6C
100
AcDbEntity
  8
SEN
  6
Continuous
 62
     1
100
AcDbLine
 10
11500.2285754295
 20
-9300.000038016136
 30
0.0
 11
23500.2285754295
 21
-9300.000038016136
 31
0.0
  0
LINE
  5
3D7
330
6C
100
AcDbEntity
  8
SEN
  6
Continuous
 62
     1
100
AcDbLine
 10
11500.2285754295
 20
-9900.000038016138
 30
0.0
 11
23500.2285754295
 21
-9900.000038016138
 31
0.0
  0
TEXT
  5
3D8
330
6C
100
AcDbEntity
  8
MOJI
  6
Continuous
 62
     4
100
AcDbText
 10
12000.2285754295
 20
-10430.00003801614
 30
0.0
 40
300.0
  1
太陽電池付長波アンテナ
100
AcDbText
  0
TEXT
  5
3D9
330
6C
100
AcDbEntity
  8
MOJI
  6
Continuous
 62
     4
100
AcDbText
 10
12000.2285754295
 20
-14630.00003801605
 30
0.0
 40
300.0
  1
ポール部
100
AcDbText
  0
TEXT
  5
3DA
330
6C
100
AcDbEntity
  8
MOJI
  6
Continuous
 62
     4
100
AcDbText
 10
12000.2285754295
 20
-17030.00003801605
 30
0.0
 40
300.0
  1
制御部（ポールに内装）
100
AcDbText
  0
TEXT
  5
3DB
330
6C
100
AcDbEntity
  8
MOJI
  6
Continuous
 62
     4
100
AcDbText
 10
12000.2285754295
 20
-17630.00003801605
 30
0.0
 40
300.0
  1
水晶発振周波数
100
AcDbText
  0
TEXT
  5
3DC
330
6C
100
AcDbEntity
  8
MOJI
  6
Continuous
 62
     4
100
AcDbText
 10
12000.2285754295
 20
-11630.00003801615
 30
0.0
 40
300.0
  1
太陽電池
100
AcDbText
  0
TEXT
  5
3DD
330
6C
100
AcDbEntity
  8
MOJI
  6
Continuous
 62
     4
100
AcDbText
 10
12000.2285754295
 20
-20630.00007603219
 30
0.0
 40
300.0
  1
蓄電部
100
AcDbText
  0
TEXT
  5
3DE
330
6C
100
AcDbEntity
  8
MOJI
  6
Continuous
 62
     4
100
AcDbText
 10
12000.2285754295
 20
-19430.00003801605
 30
0.0
 40
300.0
  1
出力信号
100
AcDbText
  0
TEXT
  5
3DF
330
6C
100
AcDbEntity
  8
MOJI
  6
Continuous
 62
     4
100
AcDbText
 10
12000.2285754295
 20
-18830.00003801605
 30
0.0
 40
300.0
  1
使用温度範囲
100
AcDbText
  0
TEXT
  5
3E0
330
6C
100
AcDbEntity
  8
MOJI
  6
Continuous
 62
     4
100
AcDbText
 10
12000.2285754295
 20
-22430.00007603217
 30
0.0
 40
300.0
  1
動作補償日数
100
AcDbText
  0
TEXT
  5
3E1
330
6C
100
AcDbEntity
  8
MOJI
  6
Continuous
 62
     4
100
AcDbText
 10
12000.2285754295
 20
-21830.00007603217
 30
0.0
 40
300.0
  1
動作補償（蓄電部　満充電時より）
100
AcDbText
  0
LINE
  5
3E2
330
6C
100
AcDbEntity
  8
SEN
  6
Continuous
 62
     2
100
AcDbLine
 10
11500.2285754295
 20
-5700.000038016144
 30
0.0
 11
23500.2285754295
 21
-5700.000038016144
 31
0.0
  0
LINE
  5
3E3
330
6C
100
AcDbEntity
  8
SEN
  6
Continuous
 62
     2
100
AcDbLine
 10
11500.2285754295
 20
-5700.000038016144
 30
0.0
 11
11500.2285754295
 21
-23700.00003801614
 31
0.0
  0
TEXT
  5
3E4
330
6C
100
AcDbEntity
  8
MOJI
  6
Continuous
 62
     4
100
AcDbText
 10
12000.2285754295
 20
-12230.00003801615
 30
0.0
 40
300.0
  1
アンテナ
100
AcDbText
  0
TEXT
  5
3E5
330
6C
100
AcDbEntity
  8
MOJI
  6
Continuous
 62
     4
100
AcDbText
 10
12000.2285754295
 20
-18230.00003801605
 30
0.0
 40
300.0
  1
精度
100
AcDbText
  0
TEXT
  5
3E6
330
6C
100
AcDbEntity
  8
MOJI
  6
Continuous
 62
     4
100
AcDbText
 10
12000.2285754295
 20
-15230.00003801605
 30
0.0
 40
300.0
  1
主柱
100
AcDbText
  0
TEXT
  5
3E7
330
6C
100
AcDbEntity
  8
MOJI
  6
Continuous
 62
     4
100
AcDbText
 10
12000.2285754295
 20
-11030.00003801614
 30
0.0
 40
300.0
  1
ケース
100
AcDbText
  0
TEXT
  5
3E8
330
6C
100
AcDbEntity
  8
MOJI
  6
Continuous
 62
     4
100
AcDbText
 10
12000.2285754295
 20
-8630.000038016136
 30
0.0
 40
300.0
  1
ガラス
100
AcDbText
  0
TEXT
  5
3E9
330
6C
100
AcDbEntity
  8
MOJI
  6
Continuous
 62
     4
100
AcDbText
 10
12000.2285754295
 20
-9230.000038016136
 30
0.0
 40
300.0
  1
機体
100
AcDbText
  0
TEXT
  5
3EA
330
6C
100
AcDbEntity
  8
MOJI
  6
Continuous
 62
     4
100
AcDbText
 10
12000.2285754295
 20
-7430.000038016136
 30
0.0
 40
300.0
  1
文字板
100
AcDbText
  0
TEXT
  5
3EB
330
6C
100
AcDbEntity
  8
MOJI
  6
Continuous
 62
     4
100
AcDbText
 10
12000.2285754295
 20
-8030.000038016137
 30
0.0
 40
300.0
  1
指針
100
AcDbText
  0
TEXT
  5
3EC
330
6C
100
AcDbEntity
  8
MOJI
  6
Continuous
 62
     4
100
AcDbText
 10
12000.2285754295
 20
-6230.000038016143
 30
0.0
 40
300.0
  1
時計部
100
AcDbText
  0
TEXT
  5
3ED
330
6C
100
AcDbEntity
  8
MOJI
  6
Continuous
 62
     4
100
AcDbText
 10
12000.2285754295
 20
-6830.000038016144
 30
0.0
 40
300.0
  1
ケース
100
AcDbText
  0
TEXT
  5
3EE
330
6C
100
AcDbEntity
  8
MOJI
  6
Continuous
 62
     3
100
AcDbText
 10
999.9999994295066
 20
99.99996198386362
 30
0.0
 40
500.0
  1
%%C700 二面ポール型太陽電池電波時計
100
AcDbText
  0
TEXT
  5
3EF
330
6C
100
AcDbEntity
  8
MOJI
  6
Continuous
 62
     4
100
AcDbText
 10
16000.2285754295
 20
-12830.00003801615
 30
0.0
 40
300.0
  1
40kHz/60kHz　自動選択
100
AcDbText
  0
LINE
  5
3F0
330
6C
100
AcDbEntity
  8
SEN
  6
Continuous
 62
     2
100
AcDbLine
 10
23500.2285754295
 20
-5700.000038016144
 30
0.0
 11
23500.2285754295
 21
-23700.00003801614
 31
0.0
  0
TEXT
  5
3F1
330
6C
100
AcDbEntity
  8
MOJI
  6
Continuous
 62
     4
100
AcDbText
 10
16000.2285754295
 20
-22430.00007603217
 30
0.0
 40
300.0
  1
約45日（完全無日照の場合）
100
AcDbText
  0
TEXT
  5
3F2
330
6C
100
AcDbEntity
  8
MOJI
  6
Continuous
 62
     4
100
AcDbText
 10
16000.2285754295
 20
-13430.00003801615
 30
0.0
 40
300.0
  1
受信感度　50dB
100
AcDbText
  0
LINE
  5
3F3
330
6C
100
AcDbEntity
  8
SEN
  6
Continuous
 62
     2
100
AcDbLine
 10
15500.2285754295
 20
-21900.00007603227
 30
0.0
 11
15500.2285754295
 21
-23700.00003801614
 31
0.0
  0
TEXT
  5
3F4
330
6C
100
AcDbEntity
  8
MOJI
  6
Continuous
 62
     4
100
AcDbText
 10
16000.2285754295
 20
-15230.00003801605
 30
0.0
 40
300.0
  1
上部\U+2026%%c89.1、下部\U+2026%%c139.8
100
AcDbText
  0
TEXT
  5
3F5
330
6C
100
AcDbEntity
  8
MOJI
  6
Continuous
 62
     4
100
AcDbText
 10
16000.2285754295
 20
-15830.00003801605
 30
0.0
 40
300.0
  1
鋼板　チョコレート色　ビニールコーティング仕上 
 41
0.9
100
AcDbText
  0
TEXT
  5
3F6
330
6C
100
AcDbEntity
  8
MOJI
  6
Continuous
 62
     4
100
AcDbText
 10
16000.2285754295
 20
-18230.00003801605
 30
0.0
 40
300.0
  1
週差%%P1.2秒以内（電波規正により積算誤差0秒）
 41
0.9
100
AcDbText
  0
TEXT
  5
3F7
330
6C
100
AcDbEntity
  8
MOJI
  6
Continuous
 62
     4
100
AcDbText
 10
16000.2285754295
 20
-20630.00007603219
 30
0.0
 40
300.0
  1
電気二重コンデンサ　1300F\U+00D72
100
AcDbText
  0
TEXT
  5
3F8
330
6C
100
AcDbEntity
  8
MOJI
  6
Continuous
 62
     4
100
AcDbText
 10
16000.2285754295
 20
-19430.00003801605
 30
0.0
 40
300.0
  1
DC3.6V 30秒有極信号
100
AcDbText
  0
TEXT
  5
3F9
330
6C
100
AcDbEntity
  8
MOJI
  6
Continuous
 62
     4
100
AcDbText
 10
16000.2285754295
 20
-17630.00003801605
 30
0.0
 40
300.0
  1
32.768kHz
100
AcDbText
  0
LINE
  5
3FA
330
6C
100
AcDbEntity
  8
SEN
  6
Continuous
 62
     2
100
AcDbLine
 10
15500.2285754295
 20
-17100.00003801605
 30
0.0
 11
15500.2285754295
 21
-21300.00003801614
 31
0.0
  0
TEXT
  5
3FB
330
6C
100
AcDbEntity
  8
MOJI
  6
Continuous
 62
     4
100
AcDbText
 10
16000.2285754295
 20
-18830.00003801605
 30
0.0
 40
300.0
  1
-20%%dC～+60%%dC
100
AcDbText
  0
TEXT
  5
3FC
330
6C
100
AcDbEntity
  8
MOJI
  6
Continuous
 62
     4
100
AcDbText
 10
16000.2285754295
 20
-12230.00003801615
 30
0.0
 40
300.0
  1
受信周波数　長波帯標準電波
100
AcDbText
  0
TEXT
  5
3FD
330
6C
100
AcDbEntity
  8
MOJI
  6
Continuous
 62
     4
100
AcDbText
 10
16000.2285754295
 20
-11030.00003801614
 30
0.0
 40
300.0
  1
樹脂製
100
AcDbText
  0
LINE
  5
3FE
330
6C
100
AcDbEntity
  8
SEN
  6
Continuous
 62
     2
100
AcDbLine
 10
15500.2285754295
 20
-14700.00003801605
 30
0.0
 11
15500.2285754295
 21
-16500.00003801605
 31
0.0
  0
LINE
  5
3FF
330
6C
100
AcDbEntity
  8
SEN
  6
Continuous
 62
     2
100
AcDbLine
 10
15500.2285754295
 20
-10500.00003801614
 30
0.0
 11
15500.2285754295
 21
-14100.00003801613
 31
0.0
  0
TEXT
  5
400
330
6C
100
AcDbEntity
  8
MOJI
  6
Continuous
 62
     4
100
AcDbText
 10
16000.2285754295
 20
-7430.000038016136
 30
0.0
 40
300.0
  1
アルミニウム 白色　文字\U+2026黒色
100
AcDbText
  0
TEXT
  5
401
330
6C
100
AcDbEntity
  8
MOJI
  6
Continuous
 62
     4
100
AcDbText
 10
16000.2285754295
 20
-9230.000038016136
 30
0.0
 40
300.0
  1
DC3.6V 有極30秒運針
100
AcDbText
  0
TEXT
  5
402
330
6C
100
AcDbEntity
  8
MOJI
  6
Continuous
 62
     4
100
AcDbText
 10
16000.2285754295
 20
-6830.000038016144
 30
0.0
 40
300.0
  1
鋼板製 チョコレート色
100
AcDbText
  0
TEXT
  5
403
330
6C
100
AcDbEntity
  8
MOJI
  6
Continuous
 62
     4
100
AcDbText
 10
16000.2285754295
 20
-8030.000038016137
 30
0.0
 40
300.0
  1
アルミニウム 黒色
100
AcDbText
  0
TEXT
  5
404
330
6C
100
AcDbEntity
  8
MOJI
  6
Continuous
 62
     4
100
AcDbText
 10
16000.2285754295
 20
-8630.000038016136
 30
0.0
 40
300.0
  1
透明 強化ガラス ｔ4
100
AcDbText
  0
LINE
  5
405
330
6C
100
AcDbEntity
  8
SEN
  6
Continuous
 62
     2
100
AcDbLine
 10
15500.2285754295
 20
-6300.000038016143
 30
0.0
 11
15500.2285754295
 21
-9900.000038016138
 31
0.0
  0
LINE
  5
406
330
6C
100
AcDbEntity
  8
0
  6
Continuous
 62
     3
100
AcDbLine
 10
2220.847898429172
 20
-5828.813340610177
 30
0.0
 11
2220.847898429172
 21
-12085.93050901614
 31
0.0
  0
LINE
  5
407
330
6C
100
AcDbEntity
  8
0
  6
Continuous
 62
     3
100
AcDbLine
 10
1998.097898429812
 20
-12085.93050901614
 30
0.0
 11
1998.097898429812
 21
-5828.813340610177
 31
0.0
  0
LINE
  5
408
330
6C
100
AcDbEntity
  8
0
  6
Continuous
 62
     3
100
AcDbLine
 10
8232.783398088185
 20
-12085.93050901614
 30
0.0
 11
8232.783398088185
 21
-5798.430509016143
 31
0.0
  0
LINE
  5
409
330
6C
100
AcDbEntity
  8
0
  6
Continuous
 62
     3
100
AcDbLine
 10
8455.533398088272
 20
-5798.430509016143
 30
0.0
 11
8455.533398088272
 21
-12085.93050901614
 31
0.0
  0
LINE
  5
40A
330
6C
100
AcDbEntity
  8
0
  6
Continuous
 62
     3
100
AcDbLine
 10
8169.408398088098
 20
-18960.93050901614
 30
0.0
 11
8169.408398088098
 21
-12123.43050901614
 31
0.0
  0
LINE
  5
40B
330
6C
100
AcDbEntity
  8
0
  6
Continuous
 62
     3
100
AcDbLine
 10
2284.22289842926
 20
-12123.43050901614
 30
0.0
 11
2284.22289842926
 21
-17085.93050901614
 31
0.0
  0
LINE
  5
40C
330
6C
100
AcDbEntity
  8
0
  6
Continuous
 62
     3
100
AcDbLine
 10
1934.722898429725
 20
-17085.93050901614
 30
0.0
 11
1934.722898429725
 21
-12123.43050901614
 31
0.0
  0
LINE
  5
40D
330
6C
100
AcDbEntity
  8
0
  6
Continuous
 62
     3
100
AcDbLine
 10
8518.90839808836
 20
-12123.43050901614
 30
0.0
 11
8518.90839808836
 21
-18960.93050901614
 31
0.0
  0
LINE
  5
40E
330
6C
100
AcDbEntity
  8
0
  6
Continuous
 62
     7
100
AcDbLine
 10
3859.472898429493
 20
-17085.93050901614
 30
0.0
 11
3359.472898429493
 21
-17085.93050901614
 31
0.0
  0
LINE
  5
40F
330
6C
100
AcDbEntity
  8
0
  6
Continuous
 62
     3
100
AcDbLine
 10
2581.431839989062
 20
-18918.43468464645
 30
0.0
 11
2581.431839989062
 21
-19429.13939059067
 31
0.0
  0
LINE
  5
410
330
6C
100
AcDbEntity
  8
0
  6
Continuous
 62
     3
100
AcDbLine
 10
2606.431839989062
 20
-18918.43468464645
 30
0.0
 11
2606.431839989062
 21
-19429.13939059067
 31
0.0
  0
TEXT
  5
411
330
6C
100
AcDbEntity
  8
SUNPO
  6
Continuous
 62
     4
100
AcDbText
 10
1545.788022762917
 20
-20407.32053070379
 30
0.0
 40
300.0
  1
□1000
 72
     1
 11
2113.406132999138
 21
-20407.32053070379
 31
0.0
100
AcDbText
  0
LINE
  5
412
330
6C
100
AcDbEntity
  8
SUNPO
  6
Continuous
 62
     1
100
AcDbLine
 10
859.4728984294924
 20
-20510.93050901614
 30
0.0
 11
3359.472898429493
 21
-20510.93050901614
 31
0.0
  0
LINE
  5
413
330
6C
100
AcDbEntity
  8
SUNPO
  6
Continuous
 62
     1
100
AcDbLine
 10
859.4728984294924
 20
-19710.93050901614
 30
0.0
 11
859.4728984294924
 21
-20710.93050901614
 31
0.0
  0
LINE
  5
414
330
6C
100
AcDbEntity
  8
SUNPO
  6
Continuous
 62
     1
100
AcDbLine
 10
1059.472898429492
 20
-20560.93050901614
 30
0.0
 11
859.4728984294924
 21
-20510.93050901614
 31
0.0
  0
LINE
  5
415
330
6C
100
AcDbEntity
  8
SUNPO
  6
Continuous
 62
     1
100
AcDbLine
 10
859.4728984294924
 20
-20510.93050901614
 30
0.0
 11
1059.472898429492
 21
-20460.93050901614
 31
0.0
  0
LINE
  5
416
330
6C
100
AcDbEntity
  8
SUNPO
  6
Continuous
 62
     1
100
AcDbLine
 10
3359.472898429493
 20
-19710.93050901614
 30
0.0
 11
3359.472898429493
 21
-20710.93050901614
 31
0.0
  0
LINE
  5
417
330
6C
100
AcDbEntity
  8
SUNPO
  6
Continuous
 62
     1
100
AcDbLine
 10
3359.472898429493
 20
-20510.93050901614
 30
0.0
 11
3159.472898429493
 21
-20560.93050901614
 31
0.0
  0
LINE
  5
418
330
6C
100
AcDbEntity
  8
SUNPO
  6
Continuous
 62
     1
100
AcDbLine
 10
3159.472898429493
 20
-20460.93050901614
 30
0.0
 11
3359.472898429493
 21
-20510.93050901614
 31
0.0
  0
LINE
  5
419
330
6C
100
AcDbEntity
  8
0
  6
Continuous
 62
     3
100
AcDbLine
 10
2606.431839989062
 20
-19429.13939059067
 30
0.0
 11
2581.431839989062
 21
-19429.13939059067
 31
0.0
  0
LINE
  5
41A
330
6C
100
AcDbEntity
  8
0
  6
Continuous
 62
     1
100
AcDbLine
 10
1871.287353384803
 20
-19210.93050901614
 30
0.0
 11
1621.287353384803
 21
-18960.93050901614
 31
0.0
  0
LINE
  5
41B
330
6C
100
AcDbEntity
  8
0
  6
Continuous
 62
     3
100
AcDbLine
 10
1734.472898429492
 20
-18885.93050901614
 30
0.0
 11
1934.722898429725
 21
-18885.93050901614
 31
0.0
  0
LINE
  5
41C
330
6C
100
AcDbEntity
  8
0
  6
Continuous
 62
     3
100
AcDbLine
 10
1934.722898429725
 20
-18835.93050901614
 30
0.0
 11
1734.472898429492
 21
-18835.93050901614
 31
0.0
  0
LINE
  5
41D
330
6C
100
AcDbEntity
  8
0
  6
Continuous
 62
     3
100
AcDbLine
 10
3359.472898429493
 20
-19210.93050901614
 30
0.0
 11
859.4728984294924
 21
-19210.93050901614
 31
0.0
  0
LINE
  5
41E
330
6C
100
AcDbEntity
  8
0
  6
Continuous
 62
     1
100
AcDbLine
 10
1376.680977670156
 20
-18960.93050901614
 30
0.0
 11
3251.680977670156
 21
-17085.93050901614
 31
0.0
  0
LINE
  5
41F
330
6C
100
AcDbEntity
  8
0
  6
Continuous
 62
     1
100
AcDbLine
 10
859.4728984294924
 20
-18947.80850236707
 30
0.0
 11
2721.350891780428
 21
-17085.93050901614
 31
0.0
  0
LINE
  5
420
330
6C
100
AcDbEntity
  8
0
  6
Continuous
 62
     1
100
AcDbLine
 10
859.4728984294924
 20
-18417.47841647735
 30
0.0
 11
2191.020805890701
 21
-17085.93050901614
 31
0.0
  0
LINE
  5
421
330
6C
100
AcDbEntity
  8
0
  6
Continuous
 62
     1
100
AcDbLine
 10
1465.069325170014
 20
-18960.93050901614
 30
0.0
 11
3340.069325170014
 21
-17085.93050901614
 31
0.0
  0
LINE
  5
422
330
6C
100
AcDbEntity
  8
0
  6
Continuous
 62
     1
100
AcDbLine
 10
934.7392392802866
 20
-18960.93050901614
 30
0.0
 11
2809.739239280287
 21
-17085.93050901614
 31
0.0
  0
LINE
  5
423
330
6C
100
AcDbEntity
  8
0
  6
Continuous
 62
     1
100
AcDbLine
 10
859.4728984294924
 20
-18505.8667639772
 30
0.0
 11
2279.40915339056
 21
-17085.93050901614
 31
0.0
  0
LINE
  5
424
330
6C
100
AcDbEntity
  8
0
  6
Continuous
 62
     3
100
AcDbLine
 10
859.4728984294924
 20
-18960.93050901614
 30
0.0
 11
3359.472898429493
 21
-18960.93050901614
 31
0.0
  0
LINE
  5
425
330
6C
100
AcDbEntity
  8
0
  6
Continuous
 62
     7
100
AcDbLine
 10
859.4728984294924
 20
-17085.93050901614
 30
0.0
 11
3359.472898429493
 21
-17085.93050901614
 31
0.0
  0
LINE
  5
426
330
6C
100
AcDbEntity
  8
0
  6
Continuous
 62
     2
100
AcDbLine
 10
859.4728984294924
 20
-17085.93050901614
 30
0.0
 11
1934.722898429725
 21
-16985.93050901614
 31
0.0
  0
LINE
  5
427
330
6C
100
AcDbEntity
  8
0
  6
Continuous
 62
     3
100
AcDbLine
 10
859.4728984294924
 20
-19210.93050901614
 30
0.0
 11
859.4728984294924
 21
-17085.93050901614
 31
0.0
  0
LINE
  5
428
330
6C
100
AcDbEntity
  8
0
  6
Continuous
 62
     1
100
AcDbLine
 10
984.0033081403525
 20
-19210.93050901614
 30
0.0
 11
1144.802618275542
 21
-19050.13119888168
 31
0.0
  0
LINE
  5
429
330
6C
100
AcDbEntity
  8
0
  6
Continuous
 62
     1
100
AcDbLine
 10
859.4728984294924
 20
-19052.61820625306
 30
0.0
 11
951.1605956656858
 21
-18960.93050901614
 31
0.0
  0
LINE
  5
42A
330
6C
100
AcDbEntity
  8
0
  6
Continuous
 62
     1
100
AcDbLine
 10
861.9599058139719
 20
-19050.13119886858
 30
0.0
 11
859.4728984294924
 21
-19047.64419148483
 31
0.0
  0
LINE
  5
42B
330
6C
100
AcDbEntity
  8
0
  6
Continuous
 62
     1
100
AcDbLine
 10
1588.444640910864
 20
-19210.93050901614
 30
0.0
 11
1569.066687000275
 21
-19191.55255510628
 31
0.0
  0
LINE
  5
42C
330
6C
100
AcDbEntity
  8
0
  6
Continuous
 62
     1
100
AcDbLine
 10
1549.688733089686
 20
-19210.93050901614
 30
0.0
 11
1710.488043224875
 21
-19050.13119888168
 31
0.0
  0
LINE
  5
42D
330
6C
100
AcDbEntity
  8
0
  6
Continuous
 62
     3
100
AcDbLine
 10
1734.472898429492
 20
-18835.93050901614
 30
0.0
 11
1734.472898429492
 21
-18885.93050901614
 31
0.0
  0
LINE
  5
42E
330
6C
100
AcDbEntity
  8
0
  6
Continuous
 62
     1
100
AcDbLine
 10
1427.645330762578
 20
-19050.13119886858
 30
0.0
 11
1338.444640910864
 21
-18960.93050901614
 31
0.0
  0
LINE
  5
42F
330
6C
100
AcDbEntity
  8
0
  6
Continuous
 62
     1
100
AcDbLine
 10
1286.223974512511
 20
-19191.55255511865
 30
0.0
 11
1516.846020615019
 21
-18960.93050901614
 31
0.0
  0
LINE
  5
430
330
6C
100
AcDbEntity
  8
0
  6
Continuous
 62
     1
100
AcDbLine
 10
1305.601928436197
 20
-19210.93050901614
 30
0.0
 11
1055.601928436197
 21
-18960.93050901614
 31
0.0
  0
LINE
  5
431
330
6C
100
AcDbEntity
  8
0
  6
Continuous
 62
     1
100
AcDbLine
 10
1022.75921596153
 20
-19210.93050901614
 30
0.0
 11
1003.381262050941
 21
-19191.55255510628
 31
0.0
  0
LINE
  5
432
330
6C
100
AcDbEntity
  8
0
  6
Continuous
 62
     1
100
AcDbLine
 10
859.4728984294924
 20
-17356.81824469789
 30
0.0
 11
1130.360634110519
 21
-17085.93050901614
 31
0.0
  0
LINE
  5
433
330
6C
100
AcDbEntity
  8
0
  6
Continuous
 62
     1
100
AcDbLine
 10
859.4728984294924
 20
-17445.20659219775
 30
0.0
 11
1218.748981610377
 21
-17085.93050901614
 31
0.0
  0
LINE
  5
434
330
6C
100
AcDbEntity
  8
0
  6
Continuous
 62
     1
100
AcDbLine
 10
859.4728984294924
 20
-17887.14833058762
 30
0.0
 11
1660.690720000246
 21
-17085.93050901614
 31
0.0
  0
LINE
  5
435
330
6C
100
AcDbEntity
  8
0
  6
Continuous
 62
     1
100
AcDbLine
 10
859.4728984294924
 20
-17975.53667808748
 30
0.0
 11
1749.079067500832
 21
-17085.93050901614
 31
0.0
  0
LINE
  5
436
330
6C
100
AcDbEntity
  8
0
  6
Continuous
 62
     7
100
AcDbLine
 10
859.4728984294924
 20
-17085.93050901614
 30
0.0
 11
359.4728984294925
 21
-17085.93050901614
 31
0.0
  0
LINE
  5
437
330
6C
100
AcDbEntity
  8
0
  6
Continuous
 62
     1
100
AcDbLine
 10
2437.341149450338
 20
-18960.93050901614
 30
0.0
 11
3359.472898429493
 21
-18038.79876003698
 31
0.0
  0
LINE
  5
438
330
6C
100
AcDbEntity
  8
0
  6
Continuous
 62
     3
100
AcDbLine
 10
3359.472898429493
 20
-17085.93050901614
 30
0.0
 11
3359.472898429493
 21
-19210.93050901614
 31
0.0
  0
LINE
  5
439
330
6C
100
AcDbEntity
  8
0
  6
L20
 62
     2
100
AcDbLine
 10
1934.722898429725
 20
-18960.93050901614
 30
0.0
 11
1934.722898429725
 21
-17085.93050901614
 31
0.0
  0
LINE
  5
43A
330
6C
100
AcDbEntity
  8
0
  6
L20
 62
     2
100
AcDbLine
 10
2284.22289842926
 20
-17085.93050901614
 30
0.0
 11
2284.22289842926
 21
-18960.93050901614
 31
0.0
  0
LINE
  5
43B
330
6C
100
AcDbEntity
  8
0
  6
Continuous
 62
     1
100
AcDbLine
 10
1907.011063559883
 20
-18960.93050901614
 30
0.0
 11
3359.472898429493
 21
-17508.46867414726
 31
0.0
  0
LINE
  5
43C
330
6C
100
AcDbEntity
  8
0
  6
Continuous
 62
     1
100
AcDbLine
 10
1995.399411060469
 20
-18960.93050901614
 30
0.0
 11
3359.472898429493
 21
-17596.85702164711
 31
0.0
  0
LINE
  5
43D
330
6C
100
AcDbEntity
  8
0
  6
Continuous
 62
     1
100
AcDbLine
 10
2417.594824411179
 20
-19191.55255511865
 30
0.0
 11
2648.216870513687
 21
-18960.93050901614
 31
0.0
  0
LINE
  5
43E
330
6C
100
AcDbEntity
  8
0
  6
Continuous
 62
     1
100
AcDbLine
 10
2525.729496950197
 20
-18960.93050901614
 30
0.0
 11
3359.472898429493
 21
-18127.18710753684
 31
0.0
  0
LINE
  5
43F
330
6C
100
AcDbEntity
  8
0
  6
Continuous
 62
     1
100
AcDbLine
 10
2559.016180661245
 20
-19050.13119886858
 30
0.0
 11
2469.815490808804
 21
-18960.93050901614
 31
0.0
  0
LINE
  5
440
330
6C
100
AcDbEntity
  8
0
  6
Continuous
 62
     1
100
AcDbLine
 10
1993.330755711911
 20
-19050.13119886858
 30
0.0
 11
1904.13006585947
 21
-18960.93050901614
 31
0.0
  0
LINE
  5
441
330
6C
100
AcDbEntity
  8
0
  6
Continuous
 62
     1
100
AcDbLine
 10
1851.909399461845
 20
-19191.55255511865
 30
0.0
 11
2082.531445564353
 21
-18960.93050901614
 31
0.0
  0
LINE
  5
442
330
6C
100
AcDbEntity
  8
0
  6
Continuous
 62
     1
100
AcDbLine
 10
2436.972778334137
 20
-19210.93050901614
 30
0.0
 11
2186.972778334137
 21
-18960.93050901614
 31
0.0
  0
LINE
  5
443
330
6C
100
AcDbEntity
  8
0
  6
Continuous
 62
     1
100
AcDbLine
 10
2154.13006585947
 20
-19210.93050901614
 30
0.0
 11
2134.752111949609
 21
-19191.55255510628
 31
0.0
  0
LINE
  5
444
330
6C
100
AcDbEntity
  8
0
  6
Continuous
 62
     1
100
AcDbLine
 10
2115.37415803902
 20
-19210.93050901614
 30
0.0
 11
2276.173468174209
 21
-19050.13119888168
 31
0.0
  0
LINE
  5
445
330
6C
100
AcDbEntity
  8
0
  6
Continuous
 62
     1
100
AcDbLine
 10
2202.64519849731
 20
-18425.84013899318
 30
0.0
 11
2340.320132845198
 21
-18443.95023258326
 31
0.0
  0
LINE
  5
446
330
6C
100
AcDbEntity
  8
0
  6
Continuous
 62
     3
100
AcDbLine
 10
2484.472898429493
 20
-18885.93050901614
 30
0.0
 11
2284.22289842926
 21
-18885.93050901614
 31
0.0
  0
LINE
  5
447
330
6C
100
AcDbEntity
  8
0
  6
Continuous
 62
     3
100
AcDbLine
 10
2284.22289842926
 20
-18835.93050901614
 30
0.0
 11
2484.472898429493
 21
-18835.93050901614
 31
0.0
  0
LWPOLYLINE
  5
448
330
6C
100
AcDbEntity
  8
0
  6
Continuous
 62
     3
100
AcDbPolyline
 90
        2
 70
     1
 43
25.0
 10
2096.972898429493
 20
-18335.93050901614
 42
1.0
 10
2121.972898429492
 20
-18335.93050901614
 42
1.0
  0
LINE
  5
449
330
6C
100
AcDbEntity
  8
0
  6
Continuous
 62
     1
100
AcDbLine
 10
2109.472898429492
 20
-18335.93050901614
 30
0.0
 11
2202.64519849731
 21
-18425.84013899318
 31
0.0
  0
LINE
  5
44A
330
6C
100
AcDbEntity
  8
0
  6
Continuous
 62
     3
100
AcDbLine
 10
2581.431839989062
 20
-18918.43468464645
 30
0.0
 11
2606.431839989062
 21
-18918.43468464645
 31
0.0
  0
LINE
  5
44B
330
6C
100
AcDbEntity
  8
0
  6
Continuous
 62
     1
100
AcDbLine
 10
2579.439732288272
 20
-18867.7264225938
 30
0.0
 11
2593.931839989062
 21
-18918.43468464645
 31
0.0
  0
LINE
  5
44C
330
6C
100
AcDbEntity
  8
0
  6
Continuous
 62
     1
100
AcDbLine
 10
2340.320132845198
 20
-18443.95023258326
 30
0.0
 11
2365.68127691641
 21
-18494.65849463591
 31
0.0
  0
LINE
  5
44D
330
6C
100
AcDbEntity
  8
0
  6
Continuous
 62
     1
100
AcDbLine
 10
2398.288474838744
 20
-18552.61079412444
 30
0.0
 11
2463.502959491569
 21
-18635.91722463966
 31
0.0
  0
LINE
  5
44E
330
6C
100
AcDbEntity
  8
0
  6
Continuous
 62
     3
100
AcDbLine
 10
2484.472898429493
 20
-18835.93050901614
 30
0.0
 11
2484.472898429493
 21
-18885.93050901614
 31
0.0
  0
LINE
  5
44F
330
6C
100
AcDbEntity
  8
0
  6
Continuous
 62
     1
100
AcDbLine
 10
2481.618049713114
 20
-18730.08971130835
 30
0.0
 11
2521.471301485115
 21
-18817.01816054115
 31
0.0
  0
LINE
  5
450
330
6C
100
AcDbEntity
  8
0
  6
Continuous
 62
     1
100
AcDbLine
 10
2463.502959491569
 20
-18635.91722463966
 30
0.0
 11
2481.618049713114
 21
-18730.08971130835
 31
0.0
  0
LINE
  5
451
330
6C
100
AcDbEntity
  8
0
  6
Continuous
 62
     1
100
AcDbLine
 10
2365.68127691641
 20
-18494.65849463591
 30
0.0
 11
2398.288474838744
 21
-18552.61079412444
 31
0.0
  0
LINE
  5
452
330
6C
100
AcDbEntity
  8
0
  6
Continuous
 62
     1
100
AcDbLine
 10
2521.471301485115
 20
-18817.01816054115
 30
0.0
 11
2579.439732288272
 21
-18867.7264225938
 31
0.0
  0
LINE
  5
453
330
6C
100
AcDbEntity
  8
0
  6
Continuous
 62
     1
100
AcDbLine
 10
3359.472898429493
 20
-19002.05977921283
 30
0.0
 11
3318.343628232804
 21
-18960.93050901614
 31
0.0
  0
LINE
  5
454
330
6C
100
AcDbEntity
  8
0
  6
Continuous
 62
     1
100
AcDbLine
 10
3285.500915758137
 20
-19210.93050901614
 30
0.0
 11
3266.122961847548
 21
-19191.55255510628
 31
0.0
  0
LINE
  5
455
330
6C
100
AcDbEntity
  8
0
  6
Continuous
 62
     1
100
AcDbLine
 10
3246.745007937687
 20
-19210.93050901614
 30
0.0
 11
3359.472898429493
 21
-19098.20261852433
 31
0.0
  0
LINE
  5
456
330
6C
100
AcDbEntity
  8
0
  6
Continuous
 62
     1
100
AcDbLine
 10
3124.701605610578
 20
-19050.13119886858
 30
0.0
 11
3035.500915758137
 21
-18960.93050901614
 31
0.0
  0
LINE
  5
457
330
6C
100
AcDbEntity
  8
0
  6
Continuous
 62
     1
100
AcDbLine
 10
3002.65820328347
 20
-19210.93050901614
 30
0.0
 11
2752.65820328347
 21
-18960.93050901614
 31
0.0
  0
LINE
  5
458
330
6C
100
AcDbEntity
  8
0
  6
Continuous
 62
     1
100
AcDbLine
 10
2719.815490808804
 20
-19210.93050901614
 30
0.0
 11
2700.437536898942
 21
-19191.55255510628
 31
0.0
  0
LINE
  5
459
330
6C
100
AcDbEntity
  8
0
  6
Continuous
 62
     1
100
AcDbLine
 10
2681.059582988353
 20
-19210.93050901614
 30
0.0
 11
2841.858893123543
 21
-19050.13119888168
 31
0.0
  0
LINE
  5
45A
330
6C
100
AcDbEntity
  8
0
  6
Continuous
 62
     1
100
AcDbLine
 10
2983.280249360512
 20
-19191.55255511865
 30
0.0
 11
3213.90229546302
 21
-18960.93050901614
 31
0.0
  0
LINE
  5
45B
330
6C
100
AcDbEntity
  8
0
  6
Continuous
 62
     1
100
AcDbLine
 10
2967.671235340065
 20
-18960.93050901614
 30
0.0
 11
3359.472898429493
 21
-18569.12884592671
 31
0.0
  0
LINE
  5
45C
330
6C
100
AcDbEntity
  8
0
  6
Continuous
 62
     1
100
AcDbLine
 10
3056.059582839924
 20
-18960.93050901614
 30
0.0
 11
3359.472898429493
 21
-18657.51719342657
 31
0.0
  0
LINE
  5
45D
330
6C
100
AcDbEntity
  8
0
  6
Continuous
 62
     2
100
AcDbLine
 10
2284.22289842926
 20
-16985.93050901614
 30
0.0
 11
3359.472898429493
 21
-17085.93050901614
 31
0.0
  0
LINE
  5
45E
330
6C
100
AcDbEntity
  8
0
  6
Continuous
 62
     2
100
AcDbLine
 10
1934.722898429725
 20
-16985.93050901614
 30
0.0
 11
2284.22289842926
 21
-16985.93050901614
 31
0.0
  0
TEXT
  5
45F
330
6C
100
AcDbEntity
  8
0
  6
Continuous
 62
     4
100
AcDbText
 10
9518.90839808836
 20
-17085.93050901614
 30
0.0
 40
250.0
  1
 GL
 11
9518.90839808836
 21
-16960.93050901614
 31
0.0
100
AcDbText
 73
     2
  0
LINE
  5
460
330
6C
100
AcDbEntity
  8
0
  6
Continuous
 62
     3
100
AcDbLine
 10
8518.90839808836
 20
-18960.93050901614
 30
0.0
 11
8169.408398088098
 21
-18960.93050901614
 31
0.0
  0
LWPOLYLINE
  5
461
330
6C
100
AcDbEntity
  8
0
  6
Continuous
 62
     3
100
AcDbPolyline
 90
        2
 70
     1
 43
25.0
 10
8331.658398088592
 20
-18860.93050901614
 42
1.0
 10
8356.658398088592
 20
-18860.93050901614
 42
1.0
  0
LINE
  5
462
330
6C
100
AcDbEntity
  8
0
  6
Continuous
 62
     7
100
AcDbLine
 10
7169.408398088098
 20
-17085.93050901614
 30
0.0
 11
8169.408398088098
 21
-17085.93050901614
 31
0.0
  0
LINE
  5
463
330
6C
100
AcDbEntity
  8
0
  6
Continuous
 62
     7
100
AcDbLine
 10
8518.90839808836
 20
-17085.93050901614
 30
0.0
 11
9518.90839808836
 21
-17085.93050901614
 31
0.0
  0
TEXT
  5
464
330
6C
100
AcDbEntity
  8
SUNPO
  6
Continuous
 62
     4
100
AcDbText
 10
2949.813467611937
 20
-14033.08993983442
 30
0.0
 40
250.0
  1
制御部
 11
2949.813467611937
 21
-14033.08993983442
 31
0.0
100
AcDbText
 73
     1
  0
LINE
  5
465
330
6C
100
AcDbEntity
  8
SUNPO
  6
Continuous
 62
     1
100
AcDbLine
 10
2849.813467611937
 20
-14033.08993983442
 30
0.0
 11
3863.065172569128
 21
-14033.08993983442
 31
0.0
  0
LINE
  5
466
330
6C
100
AcDbEntity
  8
4
100
AcDbLine
 10
2286.972898429493
 20
-15748.43050901614
 30
0.0
 11
2286.972898429493
 21
-14423.43050901614
 31
0.0
  0
LINE
  5
467
330
6C
100
AcDbEntity
  8
4
100
AcDbLine
 10
1931.972898429492
 20
-15748.43050901614
 30
0.0
 11
1931.972898429492
 21
-14423.43050901614
 31
0.0
  0
LINE
  5
468
330
6C
100
AcDbEntity
  8
SUNPO
  6
Continuous
 62
     1
100
AcDbLine
 10
2215.538915607583
 20
-14596.65381371957
 30
0.0
 11
2109.472898429492
 21
-14773.43050901614
 31
0.0
  0
LINE
  5
469
330
6C
100
AcDbEntity
  8
SUNPO
  6
Continuous
 62
     1
100
AcDbLine
 10
2109.472898429492
 20
-14773.43050901614
 30
0.0
 11
2849.813467611937
 21
-14033.08993983442
 31
0.0
  0
LINE
  5
46A
330
6C
100
AcDbEntity
  8
4
100
AcDbLine
 10
1931.972898429492
 20
-15748.43050901614
 30
0.0
 11
2286.972898429493
 21
-15748.43050901614
 31
0.0
  0
LINE
  5
46B
330
6C
100
AcDbEntity
  8
SUNPO
  6
Continuous
 62
     1
100
AcDbLine
 10
2109.472898429492
 20
-14773.43050901614
 30
0.0
 11
2286.249593726068
 21
-14667.36449183805
 31
0.0
  0
LINE
  5
46C
330
6C
100
AcDbEntity
  8
4
100
AcDbLine
 10
1931.972898429492
 20
-14423.43050901614
 30
0.0
 11
2286.972898429493
 21
-14423.43050901614
 31
0.0
  0
LINE
  5
46D
330
6C
100
AcDbEntity
  8
0
  6
Continuous
 62
     3
100
AcDbLine
 10
2246.722898429259
 20
-12085.93050901614
 30
0.0
 11
2284.22289842926
 21
-12123.43050901614
 31
0.0
  0
LINE
  5
46E
330
6C
100
AcDbEntity
  8
0
  6
Continuous
 62
     3
100
AcDbLine
 10
1972.222898429725
 20
-12085.93050901614
 30
0.0
 11
1934.722898429725
 21
-12123.43050901614
 31
0.0
  0
LINE
  5
46F
330
6C
100
AcDbEntity
  8
0
  6
Continuous
 62
     3
100
AcDbLine
 10
1972.222898429725
 20
-12085.93050901614
 30
0.0
 11
2246.722898429259
 21
-12085.93050901614
 31
0.0
  0
LINE
  5
470
330
6C
100
AcDbEntity
  8
0
  6
Continuous
 62
     3
100
AcDbLine
 10
1934.722898429725
 20
-12123.43050901614
 30
0.0
 11
2284.22289842926
 21
-12123.43050901614
 31
0.0
  0
LINE
  5
471
330
6C
100
AcDbEntity
  8
4
100
AcDbLine
 10
8294.158398088097
 20
-14423.43050901614
 30
0.0
 11
8294.158398088097
 21
-15748.43050901614
 31
0.0
  0
LINE
  5
472
330
6C
100
AcDbEntity
  8
4
100
AcDbLine
 10
8169.408398088098
 20
-15748.43050901614
 30
0.0
 11
8294.158398088097
 21
-15748.43050901614
 31
0.0
  0
LINE
  5
473
330
6C
100
AcDbEntity
  8
4
100
AcDbLine
 10
8169.408398088098
 20
-14423.43050901614
 30
0.0
 11
8294.158398088097
 21
-14423.43050901614
 31
0.0
  0
LINE
  5
474
330
6C
100
AcDbEntity
  8
0
  6
Continuous
 62
     3
100
AcDbLine
 10
8169.408398088098
 20
-12123.43050901614
 30
0.0
 11
8518.90839808836
 21
-12123.43050901614
 31
0.0
  0
LINE
  5
475
330
6C
100
AcDbEntity
  8
0
  6
Continuous
 62
     3
100
AcDbLine
 10
8206.908398088097
 20
-12085.93050901614
 30
0.0
 11
8481.40839808836
 21
-12085.93050901614
 31
0.0
  0
LINE
  5
476
330
6C
100
AcDbEntity
  8
0
  6
Continuous
 62
     3
100
AcDbLine
 10
8206.908398088097
 20
-12085.93050901614
 30
0.0
 11
8169.408398088098
 21
-12123.43050901614
 31
0.0
  0
LINE
  5
477
330
6C
100
AcDbEntity
  8
0
  6
Continuous
 62
     3
100
AcDbLine
 10
8481.40839808836
 20
-12085.93050901614
 30
0.0
 11
8518.90839808836
 21
-12123.43050901614
 31
0.0
  0
LINE
  5
478
330
6C
100
AcDbEntity
  8
SUNPO
  6
Continuous
 62
     1
100
AcDbLine
 10
6846.041600942844
 20
-6858.298004746146
 30
0.0
 11
9115.627715801878
 21
-6858.298004746146
 31
0.0
  0
LINE
  5
479
330
6C
100
AcDbEntity
  8
SUNPO
  6
Continuous
 62
     1
100
AcDbLine
 10
7994.158398088592
 20
-6058.298004746146
 30
0.0
 11
7994.158398088592
 21
-7058.298004746146
 31
0.0
  0
TEXT
  5
47A
330
6C
100
AcDbEntity
  8
SUNPO
  6
Continuous
 62
     4
100
AcDbText
 10
6973.655880280142
 20
-6754.688026433782
 30
0.0
 40
300.0
  1
280
 72
     1
 11
7284.964935398253
 21
-6754.688026433782
 31
0.0
100
AcDbText
  0
LINE
  5
47B
330
6C
100
AcDbEntity
  8
SUNPO
  6
Continuous
 62
     1
100
AcDbLine
 10
7994.158398088592
 20
-6858.298004746146
 30
0.0
 11
7794.158398088592
 21
-6908.298004746146
 31
0.0
  0
LINE
  5
47C
330
6C
100
AcDbEntity
  8
SUNPO
  6
Continuous
 62
     1
100
AcDbLine
 10
7794.158398088592
 20
-6808.298004746146
 30
0.0
 11
7994.158398088592
 21
-6858.298004746146
 31
0.0
  0
LINE
  5
47D
330
6C
100
AcDbEntity
  8
SUNPO
  6
Continuous
 62
     1
100
AcDbLine
 10
8694.158398088593
 20
-6058.298004746146
 30
0.0
 11
8694.158398088593
 21
-7058.298004746146
 31
0.0
  0
LINE
  5
47E
330
6C
100
AcDbEntity
  8
SUNPO
  6
Continuous
 62
     1
100
AcDbLine
 10
8894.158398088592
 20
-6908.298004746146
 30
0.0
 11
8694.158398088593
 21
-6858.298004746146
 31
0.0
  0
LINE
  5
47F
330
6C
100
AcDbEntity
  8
SUNPO
  6
Continuous
 62
     1
100
AcDbLine
 10
8694.158398088593
 20
-6858.298004746146
 30
0.0
 11
8894.158398088592
 21
-6808.298004746146
 31
0.0
  0
LINE
  5
480
330
6C
100
AcDbEntity
  8
4
100
AcDbLine
 10
2111.503345204692
 20
-3170.93050954587
 30
0.0
 11
2107.503345204692
 21
-3170.93050954587
 31
0.0
  0
LINE
  5
481
330
6C
100
AcDbEntity
  8
1
100
AcDbLine
 10
2172.003345204692
 20
-3431.26330301608
 30
0.0
 11
2110.753345204692
 21
-3431.26330301608
 31
0.0
  0
LINE
  5
482
330
6C
100
AcDbEntity
  8
1
100
AcDbLine
 10
2172.003345204692
 20
-3450.013303016073
 30
0.0
 11
2110.753345204692
 21
-3450.01330301608
 31
0.0
  0
LINE
  5
483
330
6C
100
AcDbEntity
  8
1
100
AcDbLine
 10
2172.003345204692
 20
-3543.76330301608
 30
0.0
 11
2110.753345204692
 21
-3543.76330301608
 31
0.0
  0
LINE
  5
484
330
6C
100
AcDbEntity
  8
1
100
AcDbLine
 10
2172.003345204692
 20
-3487.513303016072
 30
0.0
 11
2110.753345204692
 21
-3487.51330301608
 31
0.0
  0
LINE
  5
485
330
6C
100
AcDbEntity
  8
1
100
AcDbLine
 10
2172.003345204692
 20
-3468.763303016073
 30
0.0
 11
2110.753345204692
 21
-3468.76330301608
 31
0.0
  0
LINE
  5
486
330
6C
100
AcDbEntity
  8
1
100
AcDbLine
 10
2172.003345204692
 20
-3506.263303016073
 30
0.0
 11
2110.753345204692
 21
-3506.26330301608
 31
0.0
  0
LINE
  5
487
330
6C
100
AcDbEntity
  8
1
100
AcDbLine
 10
2172.003345204692
 20
-3525.013303016073
 30
0.0
 11
2110.753345204692
 21
-3525.01330301608
 31
0.0
  0
LINE
  5
488
330
6C
100
AcDbEntity
  8
4
100
AcDbLine
 10
2116.2315162546
 20
-3569.810568107118
 30
0.0
 11
2102.775174154754
 21
-3569.810568107118
 31
0.0
  0
LINE
  5
489
330
6C
100
AcDbEntity
  8
1
100
AcDbLine
 10
2110.753345204692
 20
-3543.76330301608
 30
0.0
 11
2110.753345204692
 21
-3431.26330301608
 31
0.0
  0
LINE
  5
48A
330
6C
100
AcDbEntity
  8
1
100
AcDbLine
 10
2108.253345204692
 20
-3543.76330301608
 30
0.0
 11
2108.253345204692
 21
-3431.263303016073
 31
0.0
  0
ARC
  5
48B
330
6C
100
AcDbEntity
  8
4
100
AcDbCircle
 10
2182.003345204692
 20
-3408.147215499703
 30
0.0
 40
10.0
100
AcDbArc
 50
0.0
 51
90.0
1001
GENIUS_GENODEF_13
1002
{
1000
HIER
1070
     0
1002
}
1002
{
1000
MANEDIT
1070
     0
1002
}
1002
{
1000
NOSEL
1070
     0
1002
}
1002
{
1000
BEHIND
1070
     0
1002
}
1002
{
1000
REACTOR
1002
}
1001
GENIUS_GENOBJ-N-FIL_13
1002
{
1000
OWNER
1000
GEN
1002
}
  0
ARC
  5
48C
330
6C
100
AcDbEntity
  8
4
100
AcDbCircle
 10
2202.003345204692
 20
-3573.43050954587
 30
0.0
 40
7.5
100
AcDbArc
 50
0.0
 51
90.0
1001
GENIUS_GENODEF_13
1002
{
1000
HIER
1070
     0
1002
}
1002
{
1000
MANEDIT
1070
     0
1002
}
1002
{
1000
NOSEL
1070
     0
1002
}
1002
{
1000
BEHIND
1070
     0
1002
}
1002
{
1000
REACTOR
1002
}
1001
GENIUS_GENOBJ-N-FIL_13
1002
{
1000
OWNER
1000
GEN
1002
}
  0
ARC
  5
48D
330
6C
100
AcDbEntity
  8
4
100
AcDbCircle
 10
2207.003345204692
 20
-3650.930509545848
 30
0.0
 40
2.5
100
AcDbArc
 50
0.0
 51
90.0
1001
GENIUS_GENODEF_13
1002
{
1000
HIER
1070
     0
1002
}
1002
{
1000
MANEDIT
1070
     0
1002
}
1002
{
1000
NOSEL
1070
     0
1002
}
1002
{
1000
BEHIND
1070
     0
1002
}
1002
{
1000
REACTOR
1002
}
1001
GENIUS_GENOBJ-N-FIL_13
1002
{
1000
OWNER
1000
GEN
1002
}
  0
LINE
  5
48E
330
6C
100
AcDbEntity
  8
4
100
AcDbLine
 10
2192.003345204692
 20
-3411.370540796387
 30
0.0
 11
2197.003345204692
 21
-3411.370540796387
 31
0.0
  0
ARC
  5
48F
330
6C
100
AcDbEntity
  8
4
100
AcDbCircle
 10
2189.503345204692
 20
-3645.930509545848
 30
0.0
 40
2.5
100
AcDbArc
 50
180.0
 51
270.0
1001
GENIUS_GENODEF_13
1002
{
1000
HIER
1070
     0
1002
}
1002
{
1000
MANEDIT
1070
     0
1002
}
1002
{
1000
NOSEL
1070
     0
1002
}
1002
{
1000
BEHIND
1070
     0
1002
}
1002
{
1000
REACTOR
1002
}
1001
GENIUS_GENOBJ-N-FIL_13
1002
{
1000
OWNER
1000
GEN
1002
}
  0
ARC
  5
490
330
6C
100
AcDbEntity
  8
4
100
AcDbCircle
 10
2187.003345204692
 20
-3624.819830551882
 30
0.0
 40
5.0
100
AcDbArc
 50
270.0
 51
0.0
1001
GENIUS_GENODEF_13
1002
{
1000
HIER
1070
     0
1002
}
1002
{
1000
MANEDIT
1070
     0
1002
}
1002
{
1000
NOSEL
1070
     0
1002
}
1002
{
1000
BEHIND
1070
     0
1002
}
1002
{
1000
REACTOR
1002
}
1001
GENIUS_GENOBJ-N-FIL_13
1002
{
1000
OWNER
1000
GEN
1002
}
  0
LINE
  5
491
330
6C
100
AcDbEntity
  8
4
100
AcDbLine
 10
2187.003345204692
 20
-3645.930509545848
 30
0.0
 11
2187.003345204692
 21
-3635.963470884046
 31
0.0
  0
ARC
  5
492
330
6C
100
AcDbEntity
  8
4
100
AcDbCircle
 10
2199.503345204692
 20
-3588.430509545869
 30
0.0
 40
12.5
100
AcDbArc
 50
90.0
 51
101.536959032686
1001
GENIUS_GENODEF_13
1002
{
1000
HIER
1070
     0
1002
}
1002
{
1000
MANEDIT
1070
     0
1002
}
1002
{
1000
NOSEL
1070
     0
1002
}
1002
{
1000
BEHIND
1070
     0
1002
}
1002
{
1000
REACTOR
1002
}
1001
GENIUS_GENOBJ-N-FIL_13
1002
{
1000
OWNER
1000
GEN
1002
}
  0
LINE
  5
493
330
6C
100
AcDbEntity
  8
4
100
AcDbLine
 10
2198.253345204692
 20
-3563.430509545862
 30
0.0
 11
2198.253345204692
 21
-3565.93050954587
 31
0.0
1001
GENIUS_GENODEF_13
1002
{
1000
HIER
1070
     0
1002
}
1002
{
1000
MANEDIT
1070
     0
1002
}
1002
{
1000
NOSEL
1070
     0
1002
}
1002
{
1000
BEHIND
1070
     0
1002
}
1002
{
1000
REACTOR
1002
}
1001
GENIUS_GENOBJ-N-CEN_13
1002
{
1000
OWNER
1000
GEN
1002
}
  0
LINE
  5
494
330
6C
100
AcDbEntity
  8
4
100
AcDbLine
 10
2197.003345204692
 20
-3563.430509545862
 30
0.0
 11
2198.253345204692
 21
-3563.430509545862
 31
0.0
  0
LINE
  5
495
330
6C
100
AcDbEntity
  8
1
100
AcDbLine
 10
2172.003345204692
 20
-3431.26330301608
 30
0.0
 11
2172.003345204692
 21
-3543.76330301608
 31
0.0
  0
LINE
  5
496
330
6C
100
AcDbEntity
  8
4
100
AcDbLine
 10
2197.003345204692
 20
-3411.370540796387
 30
0.0
 11
2197.003345204692
 21
-3635.963470884046
 31
0.0
1001
GENIUS_GENODEF_13
1002
{
1000
HIER
1070
     0
1002
}
1002
{
1000
MANEDIT
1070
     0
1002
}
1002
{
1000
NOSEL
1070
     0
1002
}
1002
{
1000
BEHIND
1070
     0
1002
}
1002
{
1000
REACTOR
1002
}
1001
GENIUS_GENOBJ-N-CEN_13
1002
{
1000
OWNER
1000
GEN
1002
}
  0
LINE
  5
497
330
6C
100
AcDbEntity
  8
4
100
AcDbLine
 10
2192.003345204692
 20
-3408.147215499703
 30
0.0
 11
2192.003345204692
 21
-3624.819830551882
 31
0.0
  0
LINE
  5
498
330
6C
100
AcDbEntity
  8
4
100
AcDbLine
 10
2207.003345204692
 20
-3648.430509545848
 30
0.0
 11
2189.503345204692
 21
-3648.430509545848
 31
0.0
  0
LINE
  5
499
330
6C
100
AcDbEntity
  8
4
100
AcDbLine
 10
2199.503345204692
 20
-3575.930509545869
 30
0.0
 11
2209.503345204692
 21
-3575.930509545869
 31
0.0
  0
LINE
  5
49A
330
6C
100
AcDbEntity
  8
4
100
AcDbLine
 10
2197.003345204692
 20
-3565.930509545862
 30
0.0
 11
2202.003345204692
 21
-3565.93050954587
 31
0.0
  0
ARC
  5
49B
330
6C
100
AcDbEntity
  8
4
100
AcDbCircle
 10
2037.003345204692
 20
-3408.147215499703
 30
0.0
 40
10.0
100
AcDbArc
 50
90.0
 51
180.0
1001
GENIUS_GENODEF_13
1002
{
1000
HIER
1070
     0
1002
}
1002
{
1000
MANEDIT
1070
     0
1002
}
1002
{
1000
NOSEL
1070
     0
1002
}
1002
{
1000
BEHIND
1070
     0
1002
}
1002
{
1000
REACTOR
1002
}
1001
GENIUS_GENOBJ-N-FIL_13
1002
{
1000
OWNER
1000
GEN
1002
}
  0
LINE
  5
49C
330
6C
100
AcDbEntity
  8
4
100
AcDbLine
 10
2027.003345204692
 20
-3411.370540796387
 30
0.0
 11
2022.003345204692
 21
-3411.370540796387
 31
0.0
  0
ARC
  5
49D
330
6C
100
AcDbEntity
  8
4
100
AcDbCircle
 10
2017.003345204692
 20
-3573.43050954587
 30
0.0
 40
7.5
100
AcDbArc
 50
90.0
 51
180.0
1001
GENIUS_GENODEF_13
1002
{
1000
HIER
1070
     0
1002
}
1002
{
1000
MANEDIT
1070
     0
1002
}
1002
{
1000
NOSEL
1070
     0
1002
}
1002
{
1000
BEHIND
1070
     0
1002
}
1002
{
1000
REACTOR
1002
}
1001
GENIUS_GENOBJ-N-FIL_13
1002
{
1000
OWNER
1000
GEN
1002
}
  0
ARC
  5
49E
330
6C
100
AcDbEntity
  8
4
100
AcDbCircle
 10
2012.003345204692
 20
-3650.930509545848
 30
0.0
 40
2.5
100
AcDbArc
 50
90.0
 51
180.0
1001
GENIUS_GENODEF_13
1002
{
1000
HIER
1070
     0
1002
}
1002
{
1000
MANEDIT
1070
     0
1002
}
1002
{
1000
NOSEL
1070
     0
1002
}
1002
{
1000
BEHIND
1070
     0
1002
}
1002
{
1000
REACTOR
1002
}
1001
GENIUS_GENOBJ-N-FIL_13
1002
{
1000
OWNER
1000
GEN
1002
}
  0
LINE
  5
49F
330
6C
100
AcDbEntity
  8
4
100
AcDbLine
 10
2012.003345204692
 20
-3648.430509545848
 30
0.0
 11
2029.503345204692
 21
-3648.430509545848
 31
0.0
  0
ARC
  5
4A0
330
6C
100
AcDbEntity
  8
4
100
AcDbCircle
 10
2029.503345204692
 20
-3645.930509545848
 30
0.0
 40
2.5
100
AcDbArc
 50
270.0
 51
0.0
1001
GENIUS_GENODEF_13
1002
{
1000
HIER
1070
     0
1002
}
1002
{
1000
MANEDIT
1070
     0
1002
}
1002
{
1000
NOSEL
1070
     0
1002
}
1002
{
1000
BEHIND
1070
     0
1002
}
1002
{
1000
REACTOR
1002
}
1001
GENIUS_GENOBJ-N-FIL_13
1002
{
1000
OWNER
1000
GEN
1002
}
  0
LINE
  5
4A1
330
6C
100
AcDbEntity
  8
4
100
AcDbLine
 10
2019.503345204692
 20
-3575.930509545869
 30
0.0
 11
2009.503345204692
 21
-3575.930509545869
 31
0.0
  0
ARC
  5
4A2
330
6C
100
AcDbEntity
  8
4
100
AcDbCircle
 10
2032.003345204692
 20
-3624.819830551882
 30
0.0
 40
5.0
100
AcDbArc
 50
180.0
 51
270.0
1001
GENIUS_GENODEF_13
1002
{
1000
HIER
1070
     0
1002
}
1002
{
1000
MANEDIT
1070
     0
1002
}
1002
{
1000
NOSEL
1070
     0
1002
}
1002
{
1000
BEHIND
1070
     0
1002
}
1002
{
1000
REACTOR
1002
}
1001
GENIUS_GENOBJ-N-FIL_13
1002
{
1000
OWNER
1000
GEN
1002
}
  0
LINE
  5
4A3
330
6C
100
AcDbEntity
  8
4
100
AcDbLine
 10
2032.003345204692
 20
-3645.930509545848
 30
0.0
 11
2032.003345204692
 21
-3635.963470884046
 31
0.0
  0
ARC
  5
4A4
330
6C
100
AcDbEntity
  8
4
100
AcDbCircle
 10
2019.503345204692
 20
-3588.430509545869
 30
0.0
 40
12.5
100
AcDbArc
 50
78.46304096731393
 51
90.0
1001
GENIUS_GENODEF_13
1002
{
1000
HIER
1070
     0
1002
}
1002
{
1000
MANEDIT
1070
     0
1002
}
1002
{
1000
NOSEL
1070
     0
1002
}
1002
{
1000
BEHIND
1070
     0
1002
}
1002
{
1000
REACTOR
1002
}
1001
GENIUS_GENOBJ-N-FIL_13
1002
{
1000
OWNER
1000
GEN
1002
}
  0
LINE
  5
4A5
330
6C
100
AcDbEntity
  8
4
100
AcDbLine
 10
2022.003345204692
 20
-3565.93050954587
 30
0.0
 11
2017.003345204692
 21
-3565.93050954587
 31
0.0
  0
LINE
  5
4A6
330
6C
100
AcDbEntity
  8
4
100
AcDbLine
 10
2022.003345204692
 20
-3563.430509545862
 30
0.0
 11
2020.753345204692
 21
-3563.430509545862
 31
0.0
  0
LINE
  5
4A7
330
6C
100
AcDbEntity
  8
4
100
AcDbLine
 10
2020.753345204692
 20
-3563.430509545862
 30
0.0
 11
2020.753345204692
 21
-3565.93050954587
 31
0.0
1001
GENIUS_GENODEF_13
1002
{
1000
HIER
1070
     0
1002
}
1002
{
1000
MANEDIT
1070
     0
1002
}
1002
{
1000
NOSEL
1070
     0
1002
}
1002
{
1000
BEHIND
1070
     0
1002
}
1002
{
1000
REACTOR
1002
}
1001
GENIUS_GENOBJ-N-CEN_13
1002
{
1000
OWNER
1000
GEN
1002
}
  0
LINE
  5
4A8
330
6C
100
AcDbEntity
  8
1
100
AcDbLine
 10
2047.003345204692
 20
-3431.26330301608
 30
0.0
 11
2047.003345204692
 21
-3543.76330301608
 31
0.0
  0
LINE
  5
4A9
330
6C
100
AcDbEntity
  8
4
100
AcDbLine
 10
2022.003345204692
 20
-3411.370540796387
 30
0.0
 11
2022.003345204692
 21
-3635.963470884046
 31
0.0
1001
GENIUS_GENODEF_13
1002
{
1000
HIER
1070
     0
1002
}
1002
{
1000
MANEDIT
1070
     0
1002
}
1002
{
1000
NOSEL
1070
     0
1002
}
1002
{
1000
BEHIND
1070
     0
1002
}
1002
{
1000
REACTOR
1002
}
1001
GENIUS_GENOBJ-N-CEN_13
1002
{
1000
OWNER
1000
GEN
1002
}
  0
LINE
  5
4AA
330
6C
100
AcDbEntity
  8
4
100
AcDbLine
 10
2027.003345204692
 20
-3408.147215499703
 30
0.0
 11
2027.003345204692
 21
-3624.819830551882
 31
0.0
  0
LINE
  5
4AB
330
6C
100
AcDbEntity
  8
4
100
AcDbLine
 10
2182.003345204692
 20
-3398.147215499703
 30
0.0
 11
2037.003345204692
 21
-3398.147215499703
 31
0.0
  0
LINE
  5
4AC
330
6C
100
AcDbEntity
  8
4
100
AcDbLine
 10
2191.942451654352
 20
-3622.037886131133
 30
0.0
 11
2027.003345204692
 21
-3622.037886131133
 31
0.0
  0
LINE
  5
4AD
330
6C
100
AcDbEntity
  8
4
100
AcDbLine
 10
2197.003345204692
 20
-3635.963470884046
 30
0.0
 11
2022.003345204692
 21
-3635.963470884046
 31
0.0
  0
LINE
  5
4AE
330
6C
100
AcDbEntity
  8
4
100
AcDbLine
 10
2022.003345204692
 20
-3629.819830551882
 30
0.0
 11
2197.003345204692
 21
-3629.819830551882
 31
0.0
  0
LINE
  5
4AF
330
6C
100
AcDbEntity
  8
1
100
AcDbLine
 10
2108.253345204692
 20
-3431.26330301608
 30
0.0
 11
2047.003345204692
 21
-3431.26330301608
 31
0.0
  0
LINE
  5
4B0
330
6C
100
AcDbEntity
  8
1
100
AcDbLine
 10
2108.253345204692
 20
-3450.013303016073
 30
0.0
 11
2047.003345204692
 21
-3450.013303016073
 31
0.0
  0
LINE
  5
4B1
330
6C
100
AcDbEntity
  8
1
100
AcDbLine
 10
2108.253345204692
 20
-3543.76330301608
 30
0.0
 11
2047.003345204692
 21
-3543.76330301608
 31
0.0
  0
LINE
  5
4B2
330
6C
100
AcDbEntity
  8
1
100
AcDbLine
 10
2108.253345204692
 20
-3487.513303016072
 30
0.0
 11
2047.003345204692
 21
-3487.513303016072
 31
0.0
  0
LINE
  5
4B3
330
6C
100
AcDbEntity
  8
1
100
AcDbLine
 10
2108.253345204692
 20
-3468.763303016073
 30
0.0
 11
2047.003345204692
 21
-3468.763303016073
 31
0.0
  0
LINE
  5
4B4
330
6C
100
AcDbEntity
  8
1
100
AcDbLine
 10
2108.253345204692
 20
-3506.263303016073
 30
0.0
 11
2047.003345204692
 21
-3506.263303016073
 31
0.0
  0
LINE
  5
4B5
330
6C
100
AcDbEntity
  8
1
100
AcDbLine
 10
2108.253345204692
 20
-3525.013303016073
 30
0.0
 11
2047.003345204692
 21
-3525.013303016073
 31
0.0
  0
LINE
  5
4B6
330
6C
100
AcDbEntity
  8
4
100
AcDbLine
 10
2107.503345204692
 20
-3398.076296520594
 30
0.0
 11
2107.503345204692
 21
-3171.111658911177
 31
0.0
  0
LINE
  5
4B7
330
6C
100
AcDbEntity
  8
4
100
AcDbLine
 10
2111.503345204692
 20
-3398.076296520594
 30
0.0
 11
2111.503345204692
 21
-3171.111658911177
 31
0.0
  0
LINE
  5
4B8
330
6C
100
AcDbEntity
  8
4
100
AcDbLine
 10
2209.503345204692
 20
-3694.93050954587
 30
0.0
 11
2209.503345204692
 21
-3793.43050954587
 31
0.0
1001
GENIUS_GENODEF_13
1002
{
1000
HIER
1070
     0
1002
}
1002
{
1000
MANEDIT
1070
     0
1002
}
1002
{
1000
NOSEL
1070
     0
1002
}
1002
{
1000
BEHIND
1070
     0
1002
}
1002
{
1000
REACTOR
1002
}
1001
GENIUS_GENOBJ-N-CEN_13
1002
{
1000
OWNER
1000
GEN
1002
}
  0
LINE
  5
4B9
330
6C
100
AcDbEntity
  8
4
100
AcDbLine
 10
2187.003345204692
 20
-3800.930509545848
 30
0.0
 11
2187.003345204692
 21
-3723.68050954584
 31
0.0
  0
ARC
  5
4BA
330
6C
100
AcDbEntity
  8
4
100
AcDbCircle
 10
2202.003345204692
 20
-3793.43050954587
 30
0.0
 40
7.5
100
AcDbArc
 50
270.0
 51
0.0
1001
GENIUS_GENODEF_13
1002
{
1000
HIER
1070
     0
1002
}
1002
{
1000
MANEDIT
1070
     0
1002
}
1002
{
1000
NOSEL
1070
     0
1002
}
1002
{
1000
BEHIND
1070
     0
1002
}
1002
{
1000
REACTOR
1002
}
1001
GENIUS_GENOBJ-N-FIL_13
1002
{
1000
OWNER
1000
GEN
1002
}
  0
LINE
  5
4BB
330
6C
100
AcDbEntity
  8
4
100
AcDbLine
 10
2157.1616805979
 20
-3836.008275070366
 30
0.0
 11
2158.177962191927
 21
-3803.352744021387
 31
0.0
  0
ARC
  5
4BC
330
6C
100
AcDbEntity
  8
4
100
AcDbCircle
 10
2160.676752403844
 20
-3803.430509545884
 30
0.0
 40
2.5
100
AcDbArc
 50
90.0
 51
178.2174579196222
1001
GENIUS_GENODEF_13
1002
{
1000
HIER
1070
     0
1002
}
1002
{
1000
MANEDIT
1070
     0
1002
}
1002
{
1000
NOSEL
1070
     0
1002
}
1002
{
1000
BEHIND
1070
     0
1002
}
1002
{
1000
REACTOR
1002
}
1001
GENIUS_GENOBJ-N-FIL_13
1002
{
1000
OWNER
1000
GEN
1002
}
  0
LINE
  5
4BD
330
6C
100
AcDbEntity
  8
4
100
AcDbLine
 10
2131.845009811455
 20
-3836.008275070366
 30
0.0
 11
2130.828728217457
 21
-3803.35274402138
 31
0.0
  0
ARC
  5
4BE
330
6C
100
AcDbEntity
  8
4
100
AcDbCircle
 10
2128.32993800554
 20
-3803.43050954587
 30
0.0
 40
2.5
100
AcDbArc
 50
1.782542080377738
 51
90.0
1001
GENIUS_GENODEF_13
1002
{
1000
HIER
1070
     0
1002
}
1002
{
1000
MANEDIT
1070
     0
1002
}
1002
{
1000
NOSEL
1070
     0
1002
}
1002
{
1000
BEHIND
1070
     0
1002
}
1002
{
1000
REACTOR
1002
}
1001
GENIUS_GENOBJ-N-FIL_13
1002
{
1000
OWNER
1000
GEN
1002
}
  0
LINE
  5
4BF
330
6C
100
AcDbEntity
  8
4
100
AcDbLine
 10
2158.753345204692
 20
-3890.93050954587
 30
0.0
 11
2145.003345204692
 21
-3890.93050954587
 31
0.0
  0
LINE
  5
4C0
330
6C
100
AcDbEntity
  8
4
100
AcDbLine
 10
2142.503345204692
 20
-3853.43050954587
 30
0.0
 11
2142.503345204692
 21
-3953.43050954587
 31
0.0
1001
GENIUS_GENODEF_13
1002
{
1000
HIER
1070
     0
1002
}
1002
{
1000
MANEDIT
1070
     0
1002
}
1002
{
1000
NOSEL
1070
     0
1002
}
1002
{
1000
BEHIND
1070
     0
1002
}
1002
{
1000
REACTOR
1002
}
1001
GENIUS_GENOBJ-N-CEN_13
1002
{
1000
OWNER
1000
GEN
1002
}
  0
LINE
  5
4C1
330
6C
100
AcDbEntity
  8
4
100
AcDbLine
 10
2145.003345204692
 20
-3890.93050954587
 30
0.0
 11
2145.003345204692
 21
-3953.43050954587
 31
0.0
1001
GENIUS_GENODEF_13
1002
{
1000
HIER
1070
     0
1002
}
1002
{
1000
MANEDIT
1070
     0
1002
}
1002
{
1000
NOSEL
1070
     0
1002
}
1002
{
1000
BEHIND
1070
     0
1002
}
1002
{
1000
REACTOR
1002
}
1001
GENIUS_GENOBJ-N-CEN_13
1002
{
1000
OWNER
1000
GEN
1002
}
  0
LINE
  5
4C2
330
6C
100
AcDbEntity
  8
4
100
AcDbLine
 10
2155.003345204692
 20
-3853.43050954587
 30
0.0
 11
2155.003345204692
 21
-3890.93050954587
 31
0.0
1001
GENIUS_GENODEF_13
1002
{
1000
HIER
1070
     0
1002
}
1002
{
1000
MANEDIT
1070
     0
1002
}
1002
{
1000
NOSEL
1070
     0
1002
}
1002
{
1000
BEHIND
1070
     0
1002
}
1002
{
1000
REACTOR
1002
}
1001
GENIUS_GENOBJ-N-CEN_13
1002
{
1000
OWNER
1000
GEN
1002
}
  0
LINE
  5
4C3
330
6C
100
AcDbEntity
  8
4
100
AcDbLine
 10
2134.342227934423
 20
-3838.430509545869
 30
0.0
 11
2154.662890385982
 21
-3838.430509545869
 31
0.0
  0
LINE
  5
4C4
330
6C
100
AcDbEntity
  8
4
100
AcDbLine
 10
2142.503345204692
 20
-3853.43050954587
 30
0.0
 11
2143.217630918982
 21
-3838.430509545869
 31
0.0
  0
LINE
  5
4C5
330
6C
100
AcDbEntity
  8
4
100
AcDbLine
 10
2155.003345204692
 20
-3853.43050954587
 30
0.0
 11
2155.728998256149
 21
-3838.19179546526
 31
0.0
  0
LINE
  5
4C6
330
6C
100
AcDbEntity
  8
4
100
AcDbLine
 10
2158.753345204692
 20
-3890.93050954587
 30
0.0
 11
2158.753345204692
 21
-3953.43050954587
 31
0.0
1001
GENIUS_GENODEF_13
1002
{
1000
HIER
1070
     0
1002
}
1002
{
1000
MANEDIT
1070
     0
1002
}
1002
{
1000
NOSEL
1070
     0
1002
}
1002
{
1000
BEHIND
1070
     0
1002
}
1002
{
1000
REACTOR
1002
}
1001
GENIUS_GENOBJ-N-CEN_13
1002
{
1000
OWNER
1000
GEN
1002
}
  0
ARC
  5
4C7
330
6C
100
AcDbEntity
  8
4
100
AcDbCircle
 10
2134.343800023373
 20
-3835.93050954587
 30
0.0
 40
2.5
100
AcDbArc
 50
181.7825420803777
 51
270.0
1001
GENIUS_GENODEF_13
1002
{
1000
HIER
1070
     0
1002
}
1002
{
1000
MANEDIT
1070
     0
1002
}
1002
{
1000
NOSEL
1070
     0
1002
}
1002
{
1000
BEHIND
1070
     0
1002
}
1002
{
1000
REACTOR
1002
}
1001
GENIUS_GENOBJ-N-FIL_13
1002
{
1000
OWNER
1000
GEN
1002
}
  0
ARC
  5
4C8
330
6C
100
AcDbEntity
  8
4
100
AcDbCircle
 10
2154.662890385982
 20
-3835.93050954587
 30
0.0
 40
2.5
100
AcDbArc
 50
270.0
 51
358.2174579196223
1001
GENIUS_GENODEF_13
1002
{
1000
HIER
1070
     0
1002
}
1002
{
1000
MANEDIT
1070
     0
1002
}
1002
{
1000
NOSEL
1070
     0
1002
}
1002
{
1000
BEHIND
1070
     0
1002
}
1002
{
1000
REACTOR
1002
}
1001
GENIUS_GENOBJ-N-FIL_13
1002
{
1000
OWNER
1000
GEN
1002
}
  0
ARC
  5
4C9
330
6C
100
AcDbEntity
  8
4
100
AcDbCircle
 10
2207.003345204692
 20
-3718.680509545841
 30
0.0
 40
2.5
100
AcDbArc
 50
270.0
 51
0.0
1001
GENIUS_GENODEF_13
1002
{
1000
HIER
1070
     0
1002
}
1002
{
1000
MANEDIT
1070
     0
1002
}
1002
{
1000
NOSEL
1070
     0
1002
}
1002
{
1000
BEHIND
1070
     0
1002
}
1002
{
1000
REACTOR
1002
}
1001
GENIUS_GENOBJ-N-FIL_13
1002
{
1000
OWNER
1000
GEN
1002
}
  0
LINE
  5
4CA
330
6C
100
AcDbEntity
  8
4
100
AcDbLine
 10
2208.003345204692
 20
-3693.43050954587
 30
0.0
 11
2208.003345204692
 21
-3694.93050954587
 31
0.0
1001
GENIUS_GENODEF_13
1002
{
1000
HIER
1070
     0
1002
}
1002
{
1000
MANEDIT
1070
     0
1002
}
1002
{
1000
NOSEL
1070
     0
1002
}
1002
{
1000
BEHIND
1070
     0
1002
}
1002
{
1000
REACTOR
1002
}
1001
GENIUS_GENOBJ-N-CEN_13
1002
{
1000
OWNER
1000
GEN
1002
}
  0
ARC
  5
4CB
330
6C
100
AcDbEntity
  8
4
100
AcDbCircle
 10
2189.503345204692
 20
-3723.68050954584
 30
0.0
 40
2.5
100
AcDbArc
 50
90.0
 51
180.0
1001
GENIUS_GENODEF_13
1002
{
1000
HIER
1070
     0
1002
}
1002
{
1000
MANEDIT
1070
     0
1002
}
1002
{
1000
NOSEL
1070
     0
1002
}
1002
{
1000
BEHIND
1070
     0
1002
}
1002
{
1000
REACTOR
1002
}
1001
GENIUS_GENOBJ-N-FIL_13
1002
{
1000
OWNER
1000
GEN
1002
}
  0
LINE
  5
4CC
330
6C
100
AcDbEntity
  8
4
100
AcDbLine
 10
2207.003345204692
 20
-3721.180509545841
 30
0.0
 11
2189.503345204692
 21
-3721.180509545841
 31
0.0
  0
LINE
  5
4CD
330
6C
100
AcDbEntity
  8
4
100
AcDbLine
 10
2032.003345204692
 20
-3800.930509545848
 30
0.0
 11
2032.003345204692
 21
-3723.68050954584
 31
0.0
  0
LINE
  5
4CE
330
6C
100
AcDbEntity
  8
4
100
AcDbLine
 10
2009.503345204692
 20
-3694.93050954587
 30
0.0
 11
2009.503345204692
 21
-3793.43050954587
 31
0.0
1001
GENIUS_GENODEF_13
1002
{
1000
HIER
1070
     0
1002
}
1002
{
1000
MANEDIT
1070
     0
1002
}
1002
{
1000
NOSEL
1070
     0
1002
}
1002
{
1000
BEHIND
1070
     0
1002
}
1002
{
1000
REACTOR
1002
}
1001
GENIUS_GENOBJ-N-CEN_13
1002
{
1000
OWNER
1000
GEN
1002
}
  0
ARC
  5
4CF
330
6C
100
AcDbEntity
  8
4
100
AcDbCircle
 10
2017.003345204692
 20
-3793.43050954587
 30
0.0
 40
7.5
100
AcDbArc
 50
180.0
 51
270.0
1001
GENIUS_GENODEF_13
1002
{
1000
HIER
1070
     0
1002
}
1002
{
1000
MANEDIT
1070
     0
1002
}
1002
{
1000
NOSEL
1070
     0
1002
}
1002
{
1000
BEHIND
1070
     0
1002
}
1002
{
1000
REACTOR
1002
}
1001
GENIUS_GENOBJ-N-FIL_13
1002
{
1000
OWNER
1000
GEN
1002
}
  0
ARC
  5
4D0
330
6C
100
AcDbEntity
  8
4
100
AcDbCircle
 10
2055.584418989427
 20
-3813.430509545869
 30
0.0
 40
12.5
100
AcDbArc
 50
2.726310994144213
 51
90.0
1001
GENIUS_GENODEF_13
1002
{
1000
HIER
1070
     0
1002
}
1002
{
1000
MANEDIT
1070
     0
1002
}
1002
{
1000
NOSEL
1070
     0
1002
}
1002
{
1000
BEHIND
1070
     0
1002
}
1002
{
1000
REACTOR
1002
}
1001
GENIUS_GENOBJ-N-FIL_13
1002
{
1000
OWNER
1000
GEN
1002
}
  0
LINE
  5
4D1
330
6C
100
AcDbEntity
  8
4
100
AcDbLine
 10
2070.003345204692
 20
-3853.43050954587
 30
0.0
 11
2070.003345204692
 21
-3953.43050954587
 31
0.0
1001
GENIUS_GENODEF_13
1002
{
1000
HIER
1070
     0
1002
}
1002
{
1000
MANEDIT
1070
     0
1002
}
1002
{
1000
NOSEL
1070
     0
1002
}
1002
{
1000
BEHIND
1070
     0
1002
}
1002
{
1000
REACTOR
1002
}
1001
GENIUS_GENOBJ-N-CEN_13
1002
{
1000
OWNER
1000
GEN
1002
}
  0
LINE
  5
4D2
330
6C
100
AcDbEntity
  8
4
100
AcDbLine
 10
2070.003345204692
 20
-3853.43050954587
 30
0.0
 11
2068.070270710974
 21
-3812.83594517818
 31
0.0
  0
ARC
  5
4D3
330
6C
100
AcDbEntity
  8
4
100
AcDbCircle
 10
2012.003345204692
 20
-3718.680509545841
 30
0.0
 40
2.5
100
AcDbArc
 50
180.0
 51
270.0
1001
GENIUS_GENODEF_13
1002
{
1000
HIER
1070
     0
1002
}
1002
{
1000
MANEDIT
1070
     0
1002
}
1002
{
1000
NOSEL
1070
     0
1002
}
1002
{
1000
BEHIND
1070
     0
1002
}
1002
{
1000
REACTOR
1002
}
1001
GENIUS_GENOBJ-N-FIL_13
1002
{
1000
OWNER
1000
GEN
1002
}
  0
LINE
  5
4D4
330
6C
100
AcDbEntity
  8
4
100
AcDbLine
 10
2012.003345204692
 20
-3721.180509545841
 30
0.0
 11
2029.503345204692
 21
-3721.180509545841
 31
0.0
  0
ARC
  5
4D5
330
6C
100
AcDbEntity
  8
4
100
AcDbCircle
 10
2029.503345204692
 20
-3723.68050954584
 30
0.0
 40
2.5
100
AcDbArc
 50
0.0
 51
90.0
1001
GENIUS_GENODEF_13
1002
{
1000
HIER
1070
     0
1002
}
1002
{
1000
MANEDIT
1070
     0
1002
}
1002
{
1000
NOSEL
1070
     0
1002
}
1002
{
1000
BEHIND
1070
     0
1002
}
1002
{
1000
REACTOR
1002
}
1001
GENIUS_GENOBJ-N-FIL_13
1002
{
1000
OWNER
1000
GEN
1002
}
  0
LINE
  5
4D6
330
6C
100
AcDbEntity
  8
4
100
AcDbLine
 10
2011.003345204692
 20
-3693.43050954587
 30
0.0
 11
2011.003345204692
 21
-3694.93050954587
 31
0.0
1001
GENIUS_GENODEF_13
1002
{
1000
HIER
1070
     0
1002
}
1002
{
1000
MANEDIT
1070
     0
1002
}
1002
{
1000
NOSEL
1070
     0
1002
}
1002
{
1000
BEHIND
1070
     0
1002
}
1002
{
1000
REACTOR
1002
}
1001
GENIUS_GENOBJ-N-CEN_13
1002
{
1000
OWNER
1000
GEN
1002
}
  0
LINE
  5
4D7
330
6C
100
AcDbEntity
  8
4
100
AcDbLine
 10
2202.003345204692
 20
-3800.930509545855
 30
0.0
 11
2017.003345204692
 21
-3800.930509545862
 31
0.0
  0
LINE
  5
4D8
330
6C
100
AcDbEntity
  8
4
100
AcDbLine
 10
2158.753345204692
 20
-3953.43050954587
 30
0.0
 11
2070.003345204692
 21
-3953.43050954587
 31
0.0
  0
LINE
  5
4D9
330
6C
100
AcDbEntity
  8
4
100
AcDbLine
 10
2155.003345204692
 20
-3853.43050954587
 30
0.0
 11
2070.003345204692
 21
-3853.43050954587
 31
0.0
  0
LINE
  5
4DA
330
6C
100
AcDbEntity
  8
4
100
AcDbLine
 10
2009.503345204692
 20
-3693.43050954587
 30
0.0
 11
2209.503345204692
 21
-3693.43050954587
 31
0.0
  0
LINE
  5
4DB
330
6C
100
AcDbEntity
  8
4
100
AcDbLine
 10
2009.503345204692
 20
-3694.93050954587
 30
0.0
 11
2209.503345204692
 21
-3694.93050954587
 31
0.0
  0
LINE
  5
4DC
330
6C
100
AcDbEntity
  8
4
100
AcDbLine
 10
2009.503345204692
 20
-3573.43050954587
 30
0.0
 11
2009.503345204692
 21
-3693.43050954587
 31
0.0
1001
GENIUS_GENODEF_13
1002
{
1000
HIER
1070
     0
1002
}
1002
{
1000
MANEDIT
1070
     0
1002
}
1002
{
1000
NOSEL
1070
     0
1002
}
1002
{
1000
BEHIND
1070
     0
1002
}
1002
{
1000
REACTOR
1002
}
1001
GENIUS_GENOBJ-N-CEN_13
1002
{
1000
OWNER
1000
GEN
1002
}
  0
LINE
  5
4DD
330
6C
100
AcDbEntity
  8
4
100
AcDbLine
 10
2209.503345204692
 20
-3573.43050954587
 30
0.0
 11
2209.503345204692
 21
-3693.43050954587
 31
0.0
1001
GENIUS_GENODEF_13
1002
{
1000
HIER
1070
     0
1002
}
1002
{
1000
MANEDIT
1070
     0
1002
}
1002
{
1000
NOSEL
1070
     0
1002
}
1002
{
1000
BEHIND
1070
     0
1002
}
1002
{
1000
REACTOR
1002
}
1001
GENIUS_GENOBJ-N-CEN_13
1002
{
1000
OWNER
1000
GEN
1002
}
  0
SPLINE
  5
4DE
330
6C
100
AcDbEntity
  8
4
100
AcDbSpline
210
0.0
220
0.0
230
1.0
 70
  1064
 71
     3
 72
    12
 73
     8
 74
     6
 42
0.0000000001
 43
0.0000000001
 44
0.0000000001
 40
0.0
 40
0.0
 40
0.0
 40
0.0
 40
23.98518724541597
 40
48.21222531334671
 40
74.41478635778771
 40
92.48889073136032
 40
99.15807596644501
 40
99.15807596644501
 40
99.15807596644501
 40
99.15807596644501
 10
2102.775174154754
 20
-3569.810568107118
 30
0.0
 10
2094.80045000317
 20
-3570.7774226965
 30
0.0
 10
2078.770589836808
 20
-3572.72088099981
 30
0.0
 10
2055.804118059395
 20
-3582.935825286142
 30
0.0
 10
2037.155658455399
 20
-3596.321694198402
 30
0.0
 10
2027.455374067588
 20
-3611.50490621552
 30
0.0
 10
2027.099315491418
 20
-3619.801628259568
 30
0.0
 10
2027.003345204663
 20
-3622.037886131133
 30
0.0
 11
2102.775174154754
 21
-3569.810568107118
 31
0.0
 11
2079.135680735635
 21
-3573.86809914028
 31
0.0
 11
2056.837504413969
 21
-3583.34125628417
 31
0.0
 11
2036.211650191544
 21
-3599.501341150375
 31
0.0
 11
2027.607654712017
 21
-3615.396136232259
 31
0.0
 11
2027.003345204663
 21
-3622.037886131133
 31
0.0
  0
SPLINE
  5
4DF
330
6C
100
AcDbEntity
  8
4
100
AcDbSpline
210
0.0
220
0.0
230
1.0
 70
  1064
 71
     3
 72
    12
 73
     8
 74
     6
 42
0.0000000001
 43
0.0000000001
 44
0.0000000001
 40
0.0
 40
0.0
 40
0.0
 40
0.0
 40
23.98518724541597
 40
48.21222531334671
 40
74.41478635778771
 40
92.48889073136032
 40
99.15807596644238
 40
99.15807596644238
 40
99.15807596644238
 40
99.15807596644238
 10
2116.2315162546
 20
-3569.810568107118
 30
0.0
 10
2124.206240406185
 20
-3570.7774226965
 30
0.0
 10
2140.236100572545
 20
-3572.720880999811
 30
0.0
 10
2163.202572349964
 20
-3582.935825286141
 30
0.0
 10
2181.851031953942
 20
-3596.321694198404
 30
0.0
 10
2191.55131634179
 20
-3611.504906215517
 30
0.0
 10
2191.907374917918
 20
-3619.801628259569
 30
0.0
 10
2192.003345204663
 20
-3622.037886131133
 30
0.0
 11
2116.2315162546
 21
-3569.810568107118
 31
0.0
 11
2139.87100967372
 21
-3573.86809914028
 31
0.0
 11
2162.169185995386
 21
-3583.34125628417
 31
0.0
 11
2182.79504021781
 21
-3599.501341150375
 31
0.0
 11
2191.399035697337
 21
-3615.396136232259
 31
0.0
 11
2192.003345204663
 21
-3622.037886131133
 31
0.0
  0
LINE
  5
4E0
330
6C
100
AcDbEntity
  8
4
100
AcDbLine
 10
8334.250341866136
 20
-3170.93050954587
 30
0.0
 11
8330.973733688995
 21
-3173.224815291265
 31
0.0
  0
LINE
  5
4E1
330
6C
100
AcDbEntity
  8
4
100
AcDbLine
 10
8496.028677083698
 20
-3414.728666920245
 30
0.0
 11
8492.048659980355
 21
-3409.044613427265
 31
0.0
  0
LINE
  5
4E2
330
6C
100
AcDbEntity
  8
4
100
AcDbLine
 10
8478.472528278915
 20
-3439.2293605429
 30
0.0
 11
8477.038587188028
 21
-3437.181480432176
 31
0.0
  0
ARC
  5
4E3
330
6C
100
AcDbEntity
  8
4
100
AcDbCircle
 10
8486.928959703538
 20
-3412.629466154453
 30
0.0
 40
6.25
100
AcDbArc
 50
34.99999999978924
 51
79.99999999952518
1001
GENIUS_GENODEF_13
1002
{
1000
HIER
1070
     0
1002
}
1002
{
1000
MANEDIT
1070
     0
1002
}
1002
{
1000
NOSEL
1070
     0
1002
}
1002
{
1000
BEHIND
1070
     0
1002
}
1002
{
1000
REACTOR
1002
}
1001
GENIUS_GENOBJ-N-FIL_13
1002
{
1000
OWNER
1000
GEN
1002
}
  0
LINE
  5
4E4
330
6C
100
AcDbEntity
  8
4
100
AcDbLine
 10
8485.790551570216
 20
-3431.053288997631
 30
0.0
 11
8481.488728297582
 21
-3424.90964866546
 31
0.0
  0
LINE
  5
4E5
330
6C
100
AcDbEntity
  8
4
100
AcDbLine
 10
8484.971399525937
 20
-3431.62686543398
 30
0.0
 11
8480.669576253305
 21
-3425.483225101824
 31
0.0
  0
LINE
  5
4E6
330
6C
100
AcDbEntity
  8
4
100
AcDbLine
 10
8492.343767924525
 20
-3426.464677506825
 30
0.0
 11
8488.041944651895
 21
-3420.321037174654
 31
0.0
  0
LINE
  5
4E7
330
6C
100
AcDbEntity
  8
4
100
AcDbLine
 10
8493.162919968833
 20
-3425.891101070476
 30
0.0
 11
8488.861096696187
 21
-3419.747460738305
 31
0.0
  0
LINE
  5
4E8
330
6C
100
AcDbEntity
  8
4
100
AcDbLine
 10
8441.434546733741
 20
-3398.261157352113
 30
0.0
 11
8488.014260813972
 21
-3406.474417698133
 31
0.0
1001
GENIUS_GENFIL_13
1070
     0
1040
15.0
1040
15.0
1040
20.0
1040
0.0
1002
{
1002
}
1001
GENIUS_GENODEF_13
1002
{
1000
HIER
1070
     0
1002
}
1002
{
1000
MANEDIT
1070
     0
1002
}
1002
{
1000
NOSEL
1070
     0
1002
}
1002
{
1000
BEHIND
1070
     0
1002
}
1002
{
1000
REACTOR
1002
}
1001
GENIUS_GENOBJ-N-CHA_13
1002
{
1000
OWNER
1000
GEN
1002
}
  0
ARC
  5
4E9
330
6C
100
AcDbEntity
  8
4
100
AcDbCircle
 10
8440.13218540125
 20
-3405.647215499703
 30
0.0
 40
7.5
100
AcDbArc
 50
79.99999999952518
 51
124.9999999997892
1001
GENIUS_GENODEF_13
1002
{
1000
HIER
1070
     0
1002
}
1002
{
1000
MANEDIT
1070
     0
1002
}
1002
{
1000
NOSEL
1070
     0
1002
}
1002
{
1000
BEHIND
1070
     0
1002
}
1002
{
1000
REACTOR
1002
}
1001
GENIUS_GENOBJ-N-FIL_13
1002
{
1000
OWNER
1000
GEN
1002
}
  0
ARC
  5
4EA
330
6C
100
AcDbEntity
  8
4
100
AcDbCircle
 10
8441.658398088591
 20
-3650.930509545869
 30
0.0
 40
2.5
100
AcDbArc
 50
0.0
 51
90.0
1001
GENIUS_GENODEF_13
1002
{
1000
HIER
1070
     0
1002
}
1002
{
1000
MANEDIT
1070
     0
1002
}
1002
{
1000
NOSEL
1070
     0
1002
}
1002
{
1000
BEHIND
1070
     0
1002
}
1002
{
1000
REACTOR
1002
}
1001
GENIUS_GENOBJ-N-FIL_13
1002
{
1000
OWNER
1000
GEN
1002
}
  0
LINE
  5
4EB
330
6C
100
AcDbEntity
  8
4
100
AcDbLine
 10
8508.780728904225
 20
-3414.955393523575
 30
0.0
 11
8504.478905631579
 21
-3408.811753191403
 31
0.0
  0
LINE
  5
4EC
330
6C
100
AcDbEntity
  8
4
100
AcDbLine
 10
8507.961576859932
 20
-3415.528969959924
 30
0.0
 11
8503.659753587301
 21
-3409.385329627752
 31
0.0
  0
LINE
  5
4ED
330
6C
100
AcDbEntity
  8
4
100
AcDbLine
 10
8500.589208461345
 20
-3420.691157887093
 30
0.0
 11
8496.287385188713
 21
-3414.547517554908
 31
0.0
  0
LINE
  5
4EE
330
6C
100
AcDbEntity
  8
4
100
AcDbLine
 10
8501.408360505623
 20
-3420.11758145073
 30
0.0
 11
8497.106537232991
 21
-3413.973941118573
 31
0.0
  0
LINE
  5
4EF
330
6C
100
AcDbEntity
  8
4
100
AcDbLine
 10
8513.900429181026
 20
-3411.370540796387
 30
0.0
 11
8509.598605908278
 21
-3405.226900464069
 31
0.0
  0
LINE
  5
4F0
330
6C
100
AcDbEntity
  8
4
100
AcDbLine
 10
8296.736287906183
 20
-3563.430509545869
 30
0.0
 11
8414.158398088591
 21
-3563.430509545869
 31
0.0
  0
LINE
  5
4F1
330
6C
100
AcDbEntity
  8
4
100
AcDbLine
 10
8293.16591788933
 20
-3565.93050954587
 30
0.0
 11
8406.658398088593
 21
-3565.93050954587
 31
0.0
  0
LINE
  5
4F2
330
6C
100
AcDbEntity
  8
4
100
AcDbLine
 10
8406.658398088593
 20
-3563.430509545869
 30
0.0
 11
8373.427022203426
 21
-3526.51672987557
 31
0.0
  0
LINE
  5
4F3
330
6C
100
AcDbEntity
  8
4
100
AcDbLine
 10
8414.158398088591
 20
-3563.430509545869
 30
0.0
 11
8414.158398088591
 21
-3570.93050954587
 31
0.0
  0
ARC
  5
4F4
330
6C
100
AcDbEntity
  8
4
100
AcDbCircle
 10
8424.158398088591
 20
-3645.93050954587
 30
0.0
 40
2.5
100
AcDbArc
 50
180.0
 51
270.0
1001
GENIUS_GENODEF_13
1002
{
1000
HIER
1070
     0
1002
}
1002
{
1000
MANEDIT
1070
     0
1002
}
1002
{
1000
NOSEL
1070
     0
1002
}
1002
{
1000
BEHIND
1070
     0
1002
}
1002
{
1000
REACTOR
1002
}
1001
GENIUS_GENOBJ-N-FIL_13
1002
{
1000
OWNER
1000
GEN
1002
}
  0
LINE
  5
4F5
330
6C
100
AcDbEntity
  8
4
100
AcDbLine
 10
8421.658398088592
 20
-3645.93050954587
 30
0.0
 11
8421.658398088592
 21
-3575.930509545869
 31
0.0
  0
LINE
  5
4F6
330
6C
100
AcDbEntity
  8
4
100
AcDbLine
 10
8373.427022203426
 20
-3526.51672987557
 30
0.0
 11
8478.472528278915
 21
-3439.2293605429
 31
0.0
  0
LINE
  5
4F7
330
6C
100
AcDbEntity
  8
4
100
AcDbLine
 10
8444.158398088593
 20
-3590.93050954587
 30
0.0
 11
8406.658398088593
 21
-3565.93050954587
 31
0.0
  0
LINE
  5
4F8
330
6C
100
AcDbEntity
  8
4
100
AcDbLine
 10
8441.658398088591
 20
-3648.43050954587
 30
0.0
 11
8424.158398088591
 21
-3648.43050954587
 31
0.0
  0
LINE
  5
4F9
330
6C
100
AcDbEntity
  8
4
100
AcDbLine
 10
8498.744841321576
 20
-3412.826788245875
 30
0.0
 11
8330.973733688995
 21
-3173.224815291265
 31
0.0
  0
LINE
  5
4FA
330
6C
100
AcDbEntity
  8
4
100
AcDbLine
 10
8502.021449498746
 20
-3410.532482500464
 30
0.0
 11
8334.250341866136
 21
-3170.93050954587
 31
0.0
  0
LINE
  5
4FB
330
6C
100
AcDbEntity
  8
4
100
AcDbLine
 10
8207.688432534109
 20
-3625.782489138816
 30
0.0
 11
8203.386609261476
 21
-3619.638848806644
 31
0.0
  0
LINE
  5
4FC
330
6C
100
AcDbEntity
  8
4
100
AcDbLine
 10
8208.507584578386
 20
-3625.208912702467
 30
0.0
 11
8204.20576130577
 21
-3619.065272370296
 31
0.0
  0
LINE
  5
4FD
330
6C
100
AcDbEntity
  8
4
100
AcDbLine
 10
8192.067313900654
 20
-3572.869973564331
 30
0.0
 11
8183.847230769199
 21
-3619.488381583447
 31
0.0
1001
GENIUS_GENFIL_13
1070
     0
1040
15.0
1040
15.0
1040
20.0
1040
0.0
1002
{
1002
}
1001
GENIUS_GENODEF_13
1002
{
1000
HIER
1070
     0
1002
}
1002
{
1000
MANEDIT
1070
     0
1002
}
1002
{
1000
NOSEL
1070
     0
1002
}
1002
{
1000
BEHIND
1070
     0
1002
}
1002
{
1000
REACTOR
1002
}
1001
GENIUS_GENOBJ-N-CHA_13
1002
{
1000
OWNER
1000
GEN
1002
}
  0
ARC
  5
4FE
330
6C
100
AcDbEntity
  8
4
100
AcDbCircle
 10
8190.002279225533
 20
-3620.573682693881
 30
0.0
 40
6.25
100
AcDbArc
 50
170.0000000000081
 51
214.9999999997892
1001
GENIUS_GENODEF_13
1002
{
1000
HIER
1070
     0
1002
}
1002
{
1000
MANEDIT
1070
     0
1002
}
1002
{
1000
NOSEL
1070
     0
1002
}
1002
{
1000
BEHIND
1070
     0
1002
}
1002
{
1000
REACTOR
1002
}
1001
GENIUS_GENOBJ-N-FIL_13
1002
{
1000
OWNER
1000
GEN
1002
}
  0
ARC
  5
4FF
330
6C
100
AcDbEntity
  8
4
100
AcDbCircle
 10
8199.453372048244
 20
-3574.172334896837
 30
0.0
 40
7.5
100
AcDbArc
 50
124.9999999997892
 51
170.0000000000081
1001
GENIUS_GENODEF_13
1002
{
1000
HIER
1070
     0
1002
}
1002
{
1000
MANEDIT
1070
     0
1002
}
1002
{
1000
NOSEL
1070
     0
1002
}
1002
{
1000
BEHIND
1070
     0
1002
}
1002
{
1000
REACTOR
1002
}
1001
GENIUS_GENOBJ-N-FIL_13
1002
{
1000
OWNER
1000
GEN
1002
}
  0
LINE
  5
500
330
6C
100
AcDbEntity
  8
4
100
AcDbLine
 10
8193.148483747966
 20
-3635.963470884046
 30
0.0
 11
8184.882578948716
 21
-3624.158535421069
 31
0.0
  0
LINE
  5
501
330
6C
100
AcDbEntity
  8
4
100
AcDbLine
 10
8200.31606413552
 20
-3630.944677065971
 30
0.0
 11
8196.01424086286
 21
-3624.801036733814
 31
0.0
  0
LINE
  5
502
330
6C
100
AcDbEntity
  8
4
100
AcDbLine
 10
8201.135216179798
 20
-3630.371100629622
 30
0.0
 11
8196.833392907167
 21
-3624.227460297451
 31
0.0
  0
LINE
  5
503
330
6C
100
AcDbEntity
  8
4
100
AcDbLine
 10
8246.658398088591
 20
-3648.43050954587
 30
0.0
 11
8264.158398088591
 21
-3648.43050954587
 31
0.0
  0
ARC
  5
504
330
6C
100
AcDbEntity
  8
4
100
AcDbCircle
 10
8246.658398088591
 20
-3650.930509545869
 30
0.0
 40
2.5
100
AcDbArc
 50
90.0
 51
180.0
1001
GENIUS_GENODEF_13
1002
{
1000
HIER
1070
     0
1002
}
1002
{
1000
MANEDIT
1070
     0
1002
}
1002
{
1000
NOSEL
1070
     0
1002
}
1002
{
1000
BEHIND
1070
     0
1002
}
1002
{
1000
REACTOR
1002
}
1001
GENIUS_GENOBJ-N-FIL_13
1002
{
1000
OWNER
1000
GEN
1002
}
  0
LINE
  5
505
330
6C
100
AcDbEntity
  8
4
100
AcDbLine
 10
8266.658398088592
 20
-3645.93050954587
 30
0.0
 11
8266.658398088592
 21
-3584.491274729604
 31
0.0
  0
ARC
  5
506
330
6C
100
AcDbEntity
  8
4
100
AcDbCircle
 10
8264.158398088591
 20
-3645.93050954587
 30
0.0
 40
2.5
100
AcDbArc
 50
270.0
 51
0.0
1001
GENIUS_GENODEF_13
1002
{
1000
HIER
1070
     0
1002
}
1002
{
1000
MANEDIT
1070
     0
1002
}
1002
{
1000
NOSEL
1070
     0
1002
}
1002
{
1000
BEHIND
1070
     0
1002
}
1002
{
1000
REACTOR
1002
}
1001
GENIUS_GENOBJ-N-FIL_13
1002
{
1000
OWNER
1000
GEN
1002
}
  0
LINE
  5
507
330
6C
100
AcDbEntity
  8
4
100
AcDbLine
 10
8509.598605908395
 20
-3405.22690046423
 30
0.0
 11
8188.846660475334
 21
-3629.819830551875
 31
0.0
  0
LINE
  5
508
330
6C
100
AcDbEntity
  8
4
100
AcDbLine
 10
8513.900429181026
 20
-3411.370540796387
 30
0.0
 11
8193.148483747966
 21
-3635.963470884046
 31
0.0
  0
LINE
  5
509
330
6C
100
AcDbEntity
  8
4
100
AcDbLine
 10
8435.830362128617
 20
-3399.503575167532
 30
0.0
 11
8195.15154877561
 21
-3568.028694564651
 31
0.0
  0
LINE
  5
50A
330
6C
100
AcDbEntity
  8
4
100
AcDbLine
 10
8444.158398088593
 20
-3793.430509545862
 30
0.0
 11
8444.158398088593
 21
-3694.93050954587
 31
0.0
  0
ARC
  5
50B
330
6C
100
AcDbEntity
  8
4
100
AcDbCircle
 10
8436.658398088592
 20
-3793.430509545862
 30
0.0
 40
7.5
100
AcDbArc
 50
270.0
 51
0.0
1001
GENIUS_GENODEF_13
1002
{
1000
HIER
1070
     0
1002
}
1002
{
1000
MANEDIT
1070
     0
1002
}
1002
{
1000
NOSEL
1070
     0
1002
}
1002
{
1000
BEHIND
1070
     0
1002
}
1002
{
1000
REACTOR
1002
}
1001
GENIUS_GENOBJ-N-FIL_13
1002
{
1000
OWNER
1000
GEN
1002
}
  0
LINE
  5
50C
330
6C
100
AcDbEntity
  8
4
100
AcDbLine
 10
8442.658398088562
 20
-3694.93050954587
 30
0.0
 11
8442.658398088562
 21
-3693.430509545855
 31
0.0
  0
ARC
  5
50D
330
6C
100
AcDbEntity
  8
4
100
AcDbCircle
 10
8441.658398088591
 20
-3718.680509545869
 30
0.0
 40
2.5
100
AcDbArc
 50
270.0
 51
0.0
1001
GENIUS_GENODEF_13
1002
{
1000
HIER
1070
     0
1002
}
1002
{
1000
MANEDIT
1070
     0
1002
}
1002
{
1000
NOSEL
1070
     0
1002
}
1002
{
1000
BEHIND
1070
     0
1002
}
1002
{
1000
REACTOR
1002
}
1001
GENIUS_GENOBJ-N-FIL_13
1002
{
1000
OWNER
1000
GEN
1002
}
  0
LINE
  5
50E
330
6C
100
AcDbEntity
  8
4
100
AcDbLine
 10
8317.908398088592
 20
-3890.930509545862
 30
0.0
 11
8370.40839808859
 21
-3890.930509545862
 31
0.0
  0
LINE
  5
50F
330
6C
100
AcDbEntity
  8
4
100
AcDbLine
 10
8304.658398088591
 20
-3853.430509545862
 30
0.0
 11
8383.658398088577
 21
-3853.430509545862
 31
0.0
  0
LINE
  5
510
330
6C
100
AcDbEntity
  8
4
100
AcDbLine
 10
8304.658398088591
 20
-3953.430509545862
 30
0.0
 11
8383.658398088577
 21
-3953.430509545862
 31
0.0
  0
ARC
  5
511
330
6C
100
AcDbEntity
  8
4
100
AcDbCircle
 10
8292.158398088592
 20
-3813.430509545862
 30
0.0
 40
12.5
100
AcDbArc
 50
0.0
 51
71.39392616506349
1001
GENIUS_GENODEF_13
1002
{
1000
HIER
1070
     0
1002
}
1002
{
1000
MANEDIT
1070
     0
1002
}
1002
{
1000
NOSEL
1070
     0
1002
}
1002
{
1000
BEHIND
1070
     0
1002
}
1002
{
1000
REACTOR
1002
}
1001
GENIUS_GENOBJ-N-FIL_13
1002
{
1000
OWNER
1000
GEN
1002
}
  0
ARC
  5
512
330
6C
100
AcDbEntity
  8
4
100
AcDbCircle
 10
8297.831805287744
 20
-3803.430509545877
 30
0.0
 40
2.5
100
AcDbArc
 50
90.0
 51
178.2174579196222
1001
GENIUS_GENODEF_13
1002
{
1000
HIER
1070
     0
1002
}
1002
{
1000
MANEDIT
1070
     0
1002
}
1002
{
1000
NOSEL
1070
     0
1002
}
1002
{
1000
BEHIND
1070
     0
1002
}
1002
{
1000
REACTOR
1002
}
1001
GENIUS_GENOBJ-N-FIL_13
1002
{
1000
OWNER
1000
GEN
1002
}
  0
LINE
  5
513
330
6C
100
AcDbEntity
  8
4
100
AcDbLine
 10
8294.316733481814
 20
-3836.008275070366
 30
0.0
 11
8295.333015075826
 21
-3803.352744021387
 31
0.0
  0
LINE
  5
514
330
6C
100
AcDbEntity
  8
4
100
AcDbLine
 10
8317.908398088592
 20
-3953.430509545862
 30
0.0
 11
8317.908398088592
 21
-3890.930509545862
 31
0.0
  0
LINE
  5
515
330
6C
100
AcDbEntity
  8
4
100
AcDbLine
 10
8322.908398088591
 20
-3890.930509545862
 30
0.0
 11
8322.908398088591
 21
-3800.930509545862
 31
0.0
  0
LINE
  5
516
330
6C
100
AcDbEntity
  8
4
100
AcDbLine
 10
8304.658398088591
 20
-3953.430509545862
 30
0.0
 11
8304.658398088591
 21
-3813.430509545862
 31
0.0
  0
ARC
  5
517
330
6C
100
AcDbEntity
  8
4
100
AcDbCircle
 10
8291.817943269881
 20
-3835.930509545863
 30
0.0
 40
2.5
100
AcDbArc
 50
270.0
 51
358.2174579196223
1001
GENIUS_GENODEF_13
1002
{
1000
HIER
1070
     0
1002
}
1002
{
1000
MANEDIT
1070
     0
1002
}
1002
{
1000
NOSEL
1070
     0
1002
}
1002
{
1000
BEHIND
1070
     0
1002
}
1002
{
1000
REACTOR
1002
}
1001
GENIUS_GENOBJ-N-FIL_13
1002
{
1000
OWNER
1000
GEN
1002
}
  0
LINE
  5
518
330
6C
100
AcDbEntity
  8
4
100
AcDbLine
 10
8421.658398088592
 20
-3800.930509545862
 30
0.0
 11
8421.658398088592
 21
-3723.680509545869
 31
0.0
  0
ARC
  5
519
330
6C
100
AcDbEntity
  8
4
100
AcDbCircle
 10
8396.158398088578
 20
-3813.430509545862
 30
0.0
 40
12.5
100
AcDbArc
 50
90.0
 51
180.0
1001
GENIUS_GENODEF_13
1002
{
1000
HIER
1070
     0
1002
}
1002
{
1000
MANEDIT
1070
     0
1002
}
1002
{
1000
NOSEL
1070
     0
1002
}
1002
{
1000
BEHIND
1070
     0
1002
}
1002
{
1000
REACTOR
1002
}
1001
GENIUS_GENOBJ-N-FIL_13
1002
{
1000
OWNER
1000
GEN
1002
}
  0
LINE
  5
51A
330
6C
100
AcDbEntity
  8
4
100
AcDbLine
 10
8370.40839808859
 20
-3953.430509545862
 30
0.0
 11
8370.40839808859
 21
-3890.930509545862
 31
0.0
  0
LINE
  5
51B
330
6C
100
AcDbEntity
  8
4
100
AcDbLine
 10
8365.408398088591
 20
-3890.930509545862
 30
0.0
 11
8365.408398088563
 21
-3800.930509545862
 31
0.0
  0
LINE
  5
51C
330
6C
100
AcDbEntity
  8
4
100
AcDbLine
 10
8383.658398088577
 20
-3953.430509545862
 30
0.0
 11
8383.658398088577
 21
-3813.430509545862
 31
0.0
  0
ARC
  5
51D
330
6C
100
AcDbEntity
  8
4
100
AcDbCircle
 10
8424.158398088591
 20
-3723.680509545869
 30
0.0
 40
2.5
100
AcDbArc
 50
90.0
 51
180.0
1001
GENIUS_GENODEF_13
1002
{
1000
HIER
1070
     0
1002
}
1002
{
1000
MANEDIT
1070
     0
1002
}
1002
{
1000
NOSEL
1070
     0
1002
}
1002
{
1000
BEHIND
1070
     0
1002
}
1002
{
1000
REACTOR
1002
}
1001
GENIUS_GENOBJ-N-FIL_13
1002
{
1000
OWNER
1000
GEN
1002
}
  0
LINE
  5
51E
330
6C
100
AcDbEntity
  8
4
100
AcDbLine
 10
8441.658398088591
 20
-3721.180509545869
 30
0.0
 11
8424.158398088591
 21
-3721.180509545869
 31
0.0
  0
LINE
  5
51F
330
6C
100
AcDbEntity
  8
4
100
AcDbLine
 10
8246.658398088563
 20
-3721.180509545869
 30
0.0
 11
8264.158398088591
 21
-3721.180509545869
 31
0.0
  0
LINE
  5
520
330
6C
100
AcDbEntity
  8
4
100
AcDbLine
 10
8244.158398088563
 20
-3793.430509545862
 30
0.0
 11
8244.158398088563
 21
-3694.93050954587
 31
0.0
  0
ARC
  5
521
330
6C
100
AcDbEntity
  8
4
100
AcDbCircle
 10
8251.658398088592
 20
-3793.430509545862
 30
0.0
 40
7.5
100
AcDbArc
 50
180.0
 51
270.0
1001
GENIUS_GENODEF_13
1002
{
1000
HIER
1070
     0
1002
}
1002
{
1000
MANEDIT
1070
     0
1002
}
1002
{
1000
NOSEL
1070
     0
1002
}
1002
{
1000
BEHIND
1070
     0
1002
}
1002
{
1000
REACTOR
1002
}
1001
GENIUS_GENOBJ-N-FIL_13
1002
{
1000
OWNER
1000
GEN
1002
}
  0
LINE
  5
522
330
6C
100
AcDbEntity
  8
4
100
AcDbLine
 10
8245.658398088563
 20
-3694.93050954587
 30
0.0
 11
8245.658398088563
 21
-3693.43050954587
 31
0.0
  0
ARC
  5
523
330
6C
100
AcDbEntity
  8
4
100
AcDbCircle
 10
8246.658398088563
 20
-3718.680509545869
 30
0.0
 40
2.5
100
AcDbArc
 50
180.0
 51
270.0
1001
GENIUS_GENODEF_13
1002
{
1000
HIER
1070
     0
1002
}
1002
{
1000
MANEDIT
1070
     0
1002
}
1002
{
1000
NOSEL
1070
     0
1002
}
1002
{
1000
BEHIND
1070
     0
1002
}
1002
{
1000
REACTOR
1002
}
1001
GENIUS_GENOBJ-N-FIL_13
1002
{
1000
OWNER
1000
GEN
1002
}
  0
LINE
  5
524
330
6C
100
AcDbEntity
  8
4
100
AcDbLine
 10
8266.658398088592
 20
-3800.930509545862
 30
0.0
 11
8266.658398088592
 21
-3723.680509545869
 31
0.0
  0
ARC
  5
525
330
6C
100
AcDbEntity
  8
4
100
AcDbCircle
 10
8265.48499088941
 20
-3803.430509545862
 30
0.0
 40
2.5
100
AcDbArc
 50
1.782542080377738
 51
90.0
1001
GENIUS_GENODEF_13
1002
{
1000
HIER
1070
     0
1002
}
1002
{
1000
MANEDIT
1070
     0
1002
}
1002
{
1000
NOSEL
1070
     0
1002
}
1002
{
1000
BEHIND
1070
     0
1002
}
1002
{
1000
REACTOR
1002
}
1001
GENIUS_GENOBJ-N-FIL_13
1002
{
1000
OWNER
1000
GEN
1002
}
  0
LINE
  5
526
330
6C
100
AcDbEntity
  8
4
100
AcDbLine
 10
8269.000062695354
 20
-3836.008275070366
 30
0.0
 11
8267.983781101342
 21
-3803.352744021373
 31
0.0
  0
ARC
  5
527
330
6C
100
AcDbEntity
  8
4
100
AcDbCircle
 10
8271.498852907273
 20
-3835.930509545863
 30
0.0
 40
2.5
100
AcDbArc
 50
181.7825420803777
 51
270.0
1001
GENIUS_GENODEF_13
1002
{
1000
HIER
1070
     0
1002
}
1002
{
1000
MANEDIT
1070
     0
1002
}
1002
{
1000
NOSEL
1070
     0
1002
}
1002
{
1000
BEHIND
1070
     0
1002
}
1002
{
1000
REACTOR
1002
}
1001
GENIUS_GENOBJ-N-FIL_13
1002
{
1000
OWNER
1000
GEN
1002
}
  0
ARC
  5
528
330
6C
100
AcDbEntity
  8
4
100
AcDbCircle
 10
8264.158398088591
 20
-3723.680509545869
 30
0.0
 40
2.5
100
AcDbArc
 50
0.0
 51
90.0
1001
GENIUS_GENODEF_13
1002
{
1000
HIER
1070
     0
1002
}
1002
{
1000
MANEDIT
1070
     0
1002
}
1002
{
1000
NOSEL
1070
     0
1002
}
1002
{
1000
BEHIND
1070
     0
1002
}
1002
{
1000
REACTOR
1002
}
1001
GENIUS_GENOBJ-N-FIL_13
1002
{
1000
OWNER
1000
GEN
1002
}
  0
LINE
  5
529
330
6C
100
AcDbEntity
  8
4
100
AcDbLine
 10
8244.158398088563
 20
-3694.93050954587
 30
0.0
 11
8444.158398088593
 21
-3694.93050954587
 31
0.0
  0
LINE
  5
52A
330
6C
100
AcDbEntity
  8
4
100
AcDbLine
 10
8244.158398088563
 20
-3693.43050954587
 30
0.0
 11
8444.158398088593
 21
-3693.430509545855
 31
0.0
  0
LINE
  5
52B
330
6C
100
AcDbEntity
  8
4
100
AcDbLine
 10
8251.658398088592
 20
-3800.930509545862
 30
0.0
 11
8436.658398088562
 21
-3800.930509545906
 31
0.0
  0
LINE
  5
52C
330
6C
100
AcDbEntity
  8
4
100
AcDbLine
 10
8271.497280818323
 20
-3838.430509545862
 30
0.0
 11
8291.817943269881
 21
-3838.430509545862
 31
0.0
  0
LINE
  5
52D
330
6C
100
AcDbEntity
  8
4
100
AcDbLine
 10
8244.158398088563
 20
-3693.43050954587
 30
0.0
 11
8244.158398088591
 21
-3600.245944339317
 31
0.0
  0
LINE
  5
52E
330
6C
100
AcDbEntity
  8
4
100
AcDbLine
 10
8444.158398088593
 20
-3693.430509545855
 30
0.0
 11
8444.158398088593
 21
-3590.93050954587
 31
0.0
  0
LINE
  5
52F
330
6C
100
AcDbEntity
  8
4
100
AcDbLine
 10
2077.753345204692
 20
-4061.490718620428
 30
0.0
 11
2077.753345204692
 21
-3953.24668601645
 31
0.0
  0
LINE
  5
530
330
6C
100
AcDbEntity
  8
4
100
AcDbLine
 10
2141.253345204692
 20
-4061.490718620428
 30
0.0
 11
2141.253345204692
 21
-3953.24668601645
 31
0.0
  0
LINE
  5
531
330
6C
100
AcDbEntity
  8
4
100
AcDbLine
 10
8431.658398088591
 20
-4123.430509545862
 30
0.0
 11
8431.658398088591
 21
-4115.930509545862
 31
0.0
  0
LINE
  5
532
330
6C
100
AcDbEntity
  8
4
100
AcDbLine
 10
8256.658398088593
 20
-4123.430509545862
 30
0.0
 11
8256.658398088593
 21
-4115.930509545862
 31
0.0
  0
LINE
  5
533
330
6C
100
AcDbEntity
  8
4
100
AcDbLine
 10
8312.408398088576
 20
-4115.930509545862
 30
0.0
 11
8312.408398088576
 21
-3953.430509545862
 31
0.0
  0
LINE
  5
534
330
6C
100
AcDbEntity
  8
4
100
AcDbLine
 10
8375.908398088592
 20
-4115.930509545862
 30
0.0
 11
8375.908398088592
 21
-3953.430509545862
 31
0.0
  0
LINE
  5
535
330
6C
100
AcDbEntity
  8
4
100
AcDbLine
 10
8256.658398088593
 20
-4123.430509545862
 30
0.0
 11
8431.658398088591
 21
-4123.430509545862
 31
0.0
  0
LINE
  5
536
330
6C
100
AcDbEntity
  8
4
100
AcDbLine
 10
8256.658398088593
 20
-4115.930509545862
 30
0.0
 11
8431.658398088591
 21
-4115.930509545862
 31
0.0
  0
LINE
  5
537
330
6C
100
AcDbEntity
  8
4
100
AcDbLine
 10
8574.158398088592
 20
-4085.930509545862
 30
0.0
 11
8494.158398088591
 21
-4085.930509545862
 31
0.0
  0
LINE
  5
538
330
6C
100
AcDbEntity
  8
4
100
AcDbLine
 10
8694.158398088593
 20
-4098.430509545862
 30
0.0
 11
8574.158398088592
 21
-4085.930509545862
 31
0.0
  0
LINE
  5
539
330
6C
100
AcDbEntity
  8
4
100
AcDbLine
 10
8574.158398088592
 20
-5835.930509545862
 30
0.0
 11
8494.158398088591
 21
-5835.930509545862
 31
0.0
  0
LINE
  5
53A
330
6C
100
AcDbEntity
  8
4
100
AcDbLine
 10
8694.158398088593
 20
-5823.430509545862
 30
0.0
 11
8574.158398088592
 21
-5835.930509545862
 31
0.0
  0
LINE
  5
53B
330
6C
100
AcDbEntity
  8
4
100
AcDbLine
 10
8694.158398088593
 20
-5823.430509545862
 30
0.0
 11
8694.158398088593
 21
-4098.430509545862
 31
0.0
  0
LINE
  5
53C
330
6C
100
AcDbEntity
  8
4
100
AcDbLine
 10
8494.158398088591
 20
-5835.930509545862
 30
0.0
 11
8494.158398088591
 21
-4085.930509545862
 31
0.0
  0
LINE
  5
53D
330
6C
100
AcDbEntity
  8
4
100
AcDbLine
 10
8574.158398088592
 20
-5835.930509545862
 30
0.0
 11
8574.158398088592
 21
-4085.930509545862
 31
0.0
  0
LINE
  5
53E
330
6C
100
AcDbEntity
  8
4
100
AcDbLine
 10
8114.158398088591
 20
-4085.930509545862
 30
0.0
 11
8194.158398088593
 21
-4085.930509545862
 31
0.0
  0
LINE
  5
53F
330
6C
100
AcDbEntity
  8
4
100
AcDbLine
 10
7994.158398088592
 20
-4098.430509545862
 30
0.0
 11
8114.158398088591
 21
-4085.930509545862
 31
0.0
  0
LINE
  5
540
330
6C
100
AcDbEntity
  8
4
100
AcDbLine
 10
8114.158398088591
 20
-5835.930509545862
 30
0.0
 11
8194.158398088593
 21
-5835.930509545862
 31
0.0
  0
LINE
  5
541
330
6C
100
AcDbEntity
  8
4
100
AcDbLine
 10
7994.158398088592
 20
-5823.430509545862
 30
0.0
 11
8114.158398088591
 21
-5835.930509545862
 31
0.0
  0
LINE
  5
542
330
6C
100
AcDbEntity
  8
4
100
AcDbLine
 10
8114.158398088591
 20
-5835.930509545862
 30
0.0
 11
8114.158398088591
 21
-4085.930509545862
 31
0.0
  0
LINE
  5
543
330
6C
100
AcDbEntity
  8
4
100
AcDbLine
 10
8194.158398088593
 20
-5835.930509545862
 30
0.0
 11
8194.158398088593
 21
-4085.930509545862
 31
0.0
  0
LINE
  5
544
330
6C
100
AcDbEntity
  8
4
100
AcDbLine
 10
7994.158398088592
 20
-5823.430509545862
 30
0.0
 11
7994.158398088592
 21
-4098.430509545862
 31
0.0
  0
LINE
  5
545
330
6C
100
AcDbEntity
  8
4
100
AcDbLine
 10
8194.158398088593
 20
-5798.430509545863
 30
0.0
 11
8494.158398088591
 21
-5798.430509545863
 31
0.0
  0
LINE
  5
546
330
6C
100
AcDbEntity
  8
4
100
AcDbLine
 10
8194.158398088593
 20
-4123.430509545862
 30
0.0
 11
8494.158398088591
 21
-4123.430509545862
 31
0.0
  0
CIRCLE
  5
547
330
6C
100
AcDbEntity
  8
0
  6
Continuous
 62
     1
100
AcDbCircle
 10
2830.278345204686
 20
-4727.155509545868
 30
0.0
 40
7.0
  0
CIRCLE
  5
548
330
6C
100
AcDbEntity
  8
0
  6
Continuous
 62
     1
100
AcDbCircle
 10
2801.778345204686
 20
-4653.15550954586
 30
0.0
 40
7.0
  0
ARC
  5
549
330
6C
100
AcDbEntity
  8
0
  6
Continuous
 62
     1
100
AcDbCircle
 10
2656.403345204686
 20
-4624.380509545867
 30
0.0
 40
16.825
100
AcDbArc
 50
299.0794182070236
 51
54.47219568404641
  0
CIRCLE
  5
54A
330
6C
100
AcDbEntity
  8
0
  6
Continuous
 62
     1
100
AcDbCircle
 10
2722.578345204704
 20
-4515.805509545869
 30
0.0
 40
7.0
  0
CIRCLE
  5
54B
330
6C
100
AcDbEntity
  8
0
  6
Continuous
 62
     1
100
AcDbCircle
 10
2672.603345204698
 20
-4454.155509545868
 30
0.0
 40
7.0
  0
LINE
  5
54C
330
6C
100
AcDbEntity
  8
0
  6
Continuous
 62
     1
100
AcDbLine
 10
2704.078345204689
 20
-4736.580509545871
 30
0.0
 11
2704.078345204689
 21
-4708.530509545868
 31
0.0
  0
ARC
  5
54D
330
6C
100
AcDbEntity
  8
0
  6
Continuous
 62
     1
100
AcDbCircle
 10
2656.403345204686
 20
-4624.380509545867
 30
0.0
 40
47.675
100
AcDbArc
 50
299.1334313635794
 51
54.52860040144861
  0
CIRCLE
  5
54E
330
6C
100
AcDbEntity
  8
0
  6
Continuous
 62
     1
100
AcDbCircle
 10
2765.253345204692
 20
-4582.705509545871
 30
0.0
 40
11.225
  0
ARC
  5
54F
330
6C
100
AcDbEntity
  8
0
  6
Continuous
 62
     1
100
AcDbCircle
 10
2760.153345204686
 20
-4924.480509545873
 30
0.0
 40
36.45
100
AcDbArc
 50
299.4134137504967
 51
55.05936901761911
  0
ARC
  5
550
330
6C
100
AcDbEntity
  8
0
  6
Continuous
 62
     1
100
AcDbCircle
 10
2760.153345204686
 20
-4997.380509545866
 30
0.0
 40
44.87499999999999
100
AcDbArc
 50
288.4046282507913
 51
66.49125248014911
  0
CIRCLE
  5
551
330
6C
100
AcDbEntity
  8
0
  6
Continuous
 62
     1
100
AcDbCircle
 10
2863.253345204692
 20
-4882.230509545865
 30
0.0
 40
7.0
  0
CIRCLE
  5
552
330
6C
100
AcDbEntity
  8
0
  6
Continuous
 62
     1
100
AcDbCircle
 10
2850.803345204695
 20
-4803.830509545864
 30
0.0
 40
7.0
  0
CIRCLE
  5
553
330
6C
100
AcDbEntity
  8
0
  6
Continuous
 62
     1
100
AcDbCircle
 10
2866.728345204683
 20
-4961.480509545864
 30
0.0
 40
11.225
  0
CIRCLE
  5
554
330
6C
100
AcDbEntity
  8
0
  6
Continuous
 62
     1
100
AcDbCircle
 10
2863.153345204686
 20
-5040.755509545874
 30
0.0
 40
7.0
  0
ARC
  5
555
330
6C
100
AcDbEntity
  8
0
  6
Continuous
 62
     1
100
AcDbCircle
 10
2723.128345204692
 20
-4873.980509545865
 30
0.0
 40
139.725
100
AcDbArc
 50
237.4643368150147
 51
280.5635743902108
  0
ARC
  5
556
330
6C
100
AcDbEntity
  8
0
  6
Continuous
 62
     1
100
AcDbCircle
 10
2713.278345204686
 20
-5062.005509545866
 30
0.0
 40
86.65
100
AcDbArc
 50
63.04282215734846
 51
103.6274814648628
  0
ARC
  5
557
330
6C
100
AcDbEntity
  8
0
  6
Continuous
 62
     1
100
AcDbCircle
 10
2710.353345204698
 20
-4991.005509545867
 30
0.0
 40
83.25000000000001
100
AcDbArc
 50
59.57021369838491
 51
132.9806370178728
  0
LINE
  5
558
330
6C
100
AcDbEntity
  8
0
  6
Continuous
 62
     1
100
AcDbLine
 10
2745.128345204692
 20
-4942.655509545861
 30
0.0
 11
2745.303345204681
 21
-4942.655509545861
 31
0.0
  0
ARC
  5
559
330
6C
100
AcDbEntity
  8
0
  6
Continuous
 62
     1
100
AcDbCircle
 10
2734.853345204684
 20
-4741.005509545867
 30
0.0
 40
201.925
100
AcDbArc
 50
257.9944268729501
 51
273.4126793517854
  0
LINE
  5
55A
330
6C
100
AcDbEntity
  8
0
  6
Continuous
 62
     1
100
AcDbLine
 10
2692.853345204698
 20
-4977.755509545874
 30
0.0
 11
2692.853345204698
 21
-4938.505509545866
 31
0.0
  0
ARC
  5
55B
330
6C
100
AcDbEntity
  8
0
  6
Continuous
 62
     1
100
AcDbCircle
 10
2746.128345204692
 20
-4997.380509545866
 30
0.0
 40
14.025
100
AcDbArc
 50
280.6134220541533
 51
62.98022996154255
  0
ARC
  5
55C
330
6C
100
AcDbEntity
  8
0
  6
Continuous
 62
     1
100
AcDbCircle
 10
2746.128345204692
 20
-4930.080509545863
 30
0.0
 40
12.625
100
AcDbArc
 50
273.4132000141043
 51
59.52294412532879
  0
CIRCLE
  5
55D
330
6C
100
AcDbEntity
  8
0
  6
Continuous
 62
     1
100
AcDbCircle
 10
2801.828345204675
 20
-5269.880509545867
 30
0.0
 40
7.0
  0
CIRCLE
  5
55E
330
6C
100
AcDbEntity
  8
0
  6
Continuous
 62
     1
100
AcDbCircle
 10
2830.278345204686
 20
-5195.780509545861
 30
0.0
 40
7.0
  0
LINE
  5
55F
330
6C
100
AcDbEntity
  8
0
  6
Continuous
 62
     1
100
AcDbLine
 10
2664.80334520468
 20
-5275.03050954586
 30
0.0
 11
2664.80334520468
 21
-5201.380509545867
 31
0.0
  0
LINE
  5
560
330
6C
100
AcDbEntity
  8
0
  6
Continuous
 62
     1
100
AcDbLine
 10
2664.80334520468
 20
-5331.130509545866
 30
0.0
 11
2664.80334520468
 21
-5308.680509545869
 31
0.0
  0
LINE
  5
561
330
6C
100
AcDbEntity
  8
0
  6
Continuous
 62
     1
100
AcDbLine
 10
2726.503345204692
 20
-5308.680509545869
 30
0.0
 11
2726.503345204692
 21
-5275.03050954586
 31
0.0
  0
LINE
  5
562
330
6C
100
AcDbEntity
  8
0
  6
Continuous
 62
     1
100
AcDbLine
 10
2664.80334520468
 20
-5331.130509545866
 30
0.0
 11
2698.453345204689
 21
-5331.130509545866
 31
0.0
  0
LINE
  5
563
330
6C
100
AcDbEntity
  8
0
  6
Continuous
 62
     1
100
AcDbLine
 10
2653.578345204703
 20
-5174.080509545871
 30
0.0
 11
2698.453345204689
 21
-5174.080509545871
 31
0.0
  0
LINE
  5
564
330
6C
100
AcDbEntity
  8
0
  6
Continuous
 62
     1
100
AcDbLine
 10
2698.453345204689
 20
-5275.03050954586
 30
0.0
 11
2698.453345204689
 21
-5174.080509545871
 31
0.0
  0
LINE
  5
565
330
6C
100
AcDbEntity
  8
0
  6
Continuous
 62
     1
100
AcDbLine
 10
2698.453345204689
 20
-5275.03050954586
 30
0.0
 11
2726.503345204692
 21
-5275.03050954586
 31
0.0
  0
LINE
  5
566
330
6C
100
AcDbEntity
  8
0
  6
Continuous
 62
     1
100
AcDbLine
 10
2698.453345204689
 20
-5308.680509545869
 30
0.0
 11
2726.503345204692
 21
-5308.680509545869
 31
0.0
  0
LINE
  5
567
330
6C
100
AcDbEntity
  8
0
  6
Continuous
 62
     1
100
AcDbLine
 10
2698.453345204689
 20
-5331.130509545866
 30
0.0
 11
2698.453345204689
 21
-5308.680509545869
 31
0.0
  0
CIRCLE
  5
568
330
6C
100
AcDbEntity
  8
0
  6
Continuous
 62
     1
100
AcDbCircle
 10
2672.653345204687
 20
-5468.83050954587
 30
0.0
 40
7.0
  0
CIRCLE
  5
569
330
6C
100
AcDbEntity
  8
0
  6
Continuous
 62
     1
100
AcDbCircle
 10
2722.528345204686
 20
-5407.130509545867
 30
0.0
 40
7.0
  0
CIRCLE
  5
56A
330
6C
100
AcDbEntity
  8
0
  6
Continuous
 62
     1
100
AcDbCircle
 10
2765.253345204692
 20
-5340.280509545868
 30
0.0
 40
11.225
  0
CIRCLE
  5
56B
330
6C
100
AcDbEntity
  8
0
  6
Continuous
 62
     1
100
AcDbCircle
 10
2850.853345204697
 20
-5119.105509545865
 30
0.0
 40
7.0
  0
CIRCLE
  5
56C
330
6C
100
AcDbEntity
  8
0
  6
Continuous
 62
     1
100
AcDbCircle
 10
2554.80334520468
 20
-4348.155509545875
 30
0.0
 40
7.0
  0
CIRCLE
  5
56D
330
6C
100
AcDbEntity
  8
0
  6
Continuous
 62
     1
100
AcDbCircle
 10
2417.553345204681
 20
-4268.83050954587
 30
0.0
 40
7.0
  0
LINE
  5
56E
330
6C
100
AcDbEntity
  8
0
  6
Continuous
 62
     1
100
AcDbLine
 10
2417.628345204692
 20
-4332.730509545864
 30
0.0
 11
2440.05334520468
 21
-4332.730509545864
 31
0.0
  0
CIRCLE
  5
56F
330
6C
100
AcDbEntity
  8
0
  6
Continuous
 62
     1
100
AcDbCircle
 10
2487.953345204704
 20
-4305.405509545868
 30
0.0
 40
11.225
  0
CIRCLE
  5
570
330
6C
100
AcDbEntity
  8
0
  6
Continuous
 62
     1
100
AcDbCircle
 10
2343.453345204689
 20
-4240.405509545868
 30
0.0
 40
7.0
  0
LINE
  5
571
330
6C
100
AcDbEntity
  8
0
  6
Continuous
 62
     1
100
AcDbLine
 10
2395.578345204675
 20
-4376.980509545872
 30
0.0
 11
2395.578345204675
 21
-4354.530509545868
 31
0.0
  0
LINE
  5
572
330
6C
100
AcDbEntity
  8
4
100
AcDbLine
 10
2234.528345204686
 20
-4094.905509545861
 30
0.0
 11
2234.528345204686
 21
-4069.655509545867
 31
0.0
  0
CIRCLE
  5
573
330
6C
100
AcDbEntity
  8
0
  6
Continuous
 62
     1
100
AcDbCircle
 10
2188.42834520468
 20
-4207.480509545872
 30
0.0
 40
7.0
  0
ARC
  5
574
330
6C
100
AcDbEntity
  8
0
  6
Continuous
 62
     1
100
AcDbCircle
 10
2171.203345204674
 20
-4315.880509545866
 30
0.0
 40
16.825
100
AcDbArc
 50
299.1537888466602
 51
54.40313237478505
  0
ARC
  5
575
330
6C
100
AcDbEntity
  8
0
  6
Continuous
 62
     1
100
AcDbCircle
 10
2171.203345204674
 20
-4315.880509545866
 30
0.0
 40
47.675
100
AcDbArc
 50
299.1596802968394
 51
54.48674347233027
  0
CIRCLE
  5
576
330
6C
100
AcDbEntity
  8
0
  6
Continuous
 62
     1
100
AcDbCircle
 10
2266.778345204686
 20
-4219.855509545872
 30
0.0
 40
7.0
  0
LINE
  5
577
330
6C
100
AcDbEntity
  8
0
  6
Continuous
 62
     1
100
AcDbLine
 10
2395.578345204675
 20
-4377.580509545864
 30
0.0
 11
2412.403345204686
 21
-4377.580509545864
 31
0.0
  0
ARC
  5
578
330
6C
100
AcDbEntity
  8
0
  6
Continuous
 62
     1
100
AcDbCircle
 10
2379.078345204689
 20
-4315.830509545871
 30
0.0
 40
42.075
100
AcDbArc
 50
293.0912951714316
 51
336.3277537168603
  0
LINE
  5
579
330
6C
100
AcDbEntity
  8
4
100
AcDbLine
 10
2067.878345204692
 20
-4078.905509545868
 30
0.0
 11
2067.878345204692
 21
-4061.905509545876
 31
0.0
  0
CIRCLE
  5
57A
330
6C
100
AcDbEntity
  8
0
  6
Continuous
 62
     1
100
AcDbCircle
 10
2109.17834520468
 20
-4203.880509545866
 30
0.0
 40
11.225
  0
LINE
  5
57B
330
6C
100
AcDbEntity
  8
0
  6
Continuous
 62
     1
100
AcDbLine
 10
2067.453345204675
 20
-4301.880509545866
 30
0.0
 11
2092.678345204695
 21
-4318.705509545863
 31
0.0
  0
LINE
  5
57C
330
6C
100
AcDbEntity
  8
4
100
AcDbLine
 10
2151.128345204692
 20
-4078.905509545868
 30
0.0
 11
2151.128345204692
 21
-4061.905509545876
 31
0.0
  0
LINE
  5
57D
330
6C
100
AcDbEntity
  8
4
100
AcDbLine
 10
1984.478345204698
 20
-4094.880509545866
 30
0.0
 11
1984.478345204698
 21
-4069.655509545867
 31
0.0
  0
CIRCLE
  5
57E
330
6C
100
AcDbEntity
  8
0
  6
Continuous
 62
     1
100
AcDbCircle
 10
1951.503345204692
 20
-4219.855509545872
 30
0.0
 40
7.0
  0
LINE
  5
57F
330
6C
100
AcDbEntity
  8
0
  6
Continuous
 62
     1
100
AcDbLine
 10
1994.528345204686
 20
-4309.655509545868
 30
0.0
 11
1994.528345204686
 21
-4287.230509545865
 31
0.0
  0
LINE
  5
580
330
6C
100
AcDbEntity
  8
0
  6
Continuous
 62
     1
100
AcDbLine
 10
1994.528345204686
 20
-4310.280509545868
 30
0.0
 11
2011.353345204669
 21
-4310.280509545868
 31
0.0
  0
ARC
  5
581
330
6C
100
AcDbEntity
  8
0
  6
Continuous
 62
     1
100
AcDbCircle
 10
1978.028345204686
 20
-4248.530509545868
 30
0.0
 40
42.075
100
AcDbArc
 50
293.0912951714316
 51
336.3589280603974
  0
LINE
  5
582
330
6C
100
AcDbEntity
  8
0
  6
Continuous
 62
     1
100
AcDbLine
 10
2016.578345204689
 20
-4265.405509545868
 30
0.0
 11
2039.003345204692
 21
-4265.405509545868
 31
0.0
  0
CIRCLE
  5
583
330
6C
100
AcDbEntity
  8
0
  6
Continuous
 62
     1
100
AcDbCircle
 10
2029.928345204709
 20
-4207.405509545861
 30
0.0
 40
7.0
  0
ARC
  5
584
330
6C
100
AcDbEntity
  8
0
  6
Continuous
 62
     1
100
AcDbCircle
 10
1835.403345204686
 20
-4327.05550954587
 30
0.0
 40
42.075
100
AcDbArc
 50
293.0599683560309
 51
336.3452710186964
  0
CIRCLE
  5
585
330
6C
100
AcDbEntity
  8
0
  6
Continuous
 62
     1
100
AcDbCircle
 10
1800.853345204697
 20
-4268.880509545874
 30
0.0
 40
7.0
  0
CIRCLE
  5
586
330
6C
100
AcDbEntity
  8
0
  6
Continuous
 62
     1
100
AcDbCircle
 10
1874.828345204704
 20
-4240.405509545868
 30
0.0
 40
7.0
  0
LINE
  5
587
330
6C
100
AcDbEntity
  8
0
  6
Continuous
 62
     1
100
AcDbLine
 10
1873.928345204695
 20
-4343.930509545869
 30
0.0
 11
1896.378345204692
 21
-4343.930509545869
 31
0.0
  0
ARC
  5
588
330
6C
100
AcDbEntity
  8
0
  6
Continuous
 62
     1
100
AcDbCircle
 10
1695.178345204694
 20
-4327.05550954587
 30
0.0
 40
42.075
100
AcDbArc
 50
293.0599683560309
 51
336.3452710186964
  0
CIRCLE
  5
589
330
6C
100
AcDbEntity
  8
0
  6
Continuous
 62
     1
100
AcDbCircle
 10
1730.403345204686
 20
-4305.405509545868
 30
0.0
 40
11.225
  0
LINE
  5
58A
330
6C
100
AcDbEntity
  8
0
  6
Continuous
 62
     1
100
AcDbLine
 10
1733.703345204674
 20
-4343.930509545869
 30
0.0
 11
1756.153345204686
 21
-4343.930509545869
 31
0.0
  0
ARC
  5
58B
330
6C
100
AcDbEntity
  8
4
100
AcDbCircle
 10
2109.503345204692
 20
-4960.930509545862
 30
0.0
 40
883.0000000000001
100
AcDbArc
 50
81.86003286744137
 51
98.1399671325586
  0
ARC
  5
58C
330
6C
100
AcDbEntity
  8
4
100
AcDbCircle
 10
2109.503345204692
 20
-4960.930509545862
 30
0.0
 40
900.0
100
AcDbArc
 50
82.01484851526119
 51
97.98515148473878
  0
LINE
  5
58D
330
6C
100
AcDbEntity
  8
0
  6
Continuous
 62
     1
100
AcDbLine
 10
2105.803345204695
 20
-4371.705509545864
 30
0.0
 11
2179.403345204686
 21
-4330.580509545863
 31
0.0
  0
ARC
  5
58E
330
6C
100
AcDbEntity
  8
0
  6
Continuous
 62
     1
100
AcDbCircle
 10
2145.253345204692
 20
-4352.355509545872
 30
0.0
 40
61.70000000000001
100
AcDbArc
 50
54.52445046304027
 51
147.0179669560562
  0
ARC
  5
58F
330
6C
100
AcDbEntity
  8
0
  6
Continuous
 62
     1
100
AcDbCircle
 10
2145.253345204692
 20
-4352.355509545872
 30
0.0
 40
92.55
100
AcDbArc
 50
54.52713233738702
 51
147.0267361879695
  0
LINE
  5
590
330
6C
100
AcDbEntity
  8
0
  6
Continuous
 62
     1
100
AcDbLine
 10
2552.628345204692
 20
-4610.355509545865
 30
0.0
 11
2577.878345204692
 21
-4627.180509545862
 31
0.0
  0
CIRCLE
  5
591
330
6C
100
AcDbEntity
  8
0
  6
Continuous
 62
     1
100
AcDbCircle
 10
2616.503345204692
 20
-4398.005509545867
 30
0.0
 40
7.0
  0
ARC
  5
592
330
6C
100
AcDbEntity
  8
0
  6
Continuous
 62
     1
100
AcDbCircle
 10
2622.453345204675
 20
-4736.580509545871
 30
0.0
 40
64.5
100
AcDbArc
 50
119.1558980178519
 51
180.0
  0
LINE
  5
593
330
6C
100
AcDbEntity
  8
0
  6
Continuous
 62
     1
100
AcDbLine
 10
2412.003345204692
 20
-4495.380509545866
 30
0.0
 11
2440.05334520468
 21
-4495.380509545866
 31
0.0
  0
LINE
  5
594
330
6C
100
AcDbEntity
  8
0
  6
Continuous
 62
     1
100
AcDbLine
 10
2218.878345204692
 20
-4428.080509545863
 30
0.0
 11
2218.878345204692
 21
-4400.03050954586
 31
0.0
  0
LINE
  5
595
330
6C
100
AcDbEntity
  8
0
  6
Continuous
 62
     1
100
AcDbLine
 10
2161.103345204683
 20
-4945.030509545875
 30
0.0
 11
2261.278345204686
 21
-4998.05550954587
 31
0.0
  0
LINE
  5
596
330
6C
100
AcDbEntity
  8
0
  6
Continuous
 62
     1
100
AcDbLine
 10
2217.55334520468
 20
-5073.80550954587
 30
0.0
 11
2261.278345204686
 21
-4998.05550954587
 31
0.0
  0
LINE
  5
597
330
6C
100
AcDbEntity
  8
0
  6
Continuous
 62
     1
100
AcDbLine
 10
2535.803345204695
 20
-5308.680509545869
 30
0.0
 11
2535.803345204695
 21
-5275.03050954586
 31
0.0
  0
LINE
  5
598
330
6C
100
AcDbEntity
  8
0
  6
Continuous
 62
     1
100
AcDbLine
 10
2518.978345204698
 20
-5437.705509545871
 30
0.0
 11
2518.978345204698
 21
-5404.055509545862
 31
0.0
  0
CIRCLE
  5
599
330
6C
100
AcDbEntity
  8
0
  6
Continuous
 62
     1
100
AcDbCircle
 10
2554.878345204692
 20
-5574.90550954586
 30
0.0
 40
7.0
  0
CIRCLE
  5
59A
330
6C
100
AcDbEntity
  8
0
  6
Continuous
 62
     1
100
AcDbCircle
 10
2616.503345204692
 20
-5524.930509545869
 30
0.0
 40
7.0
  0
ARC
  5
59B
330
6C
100
AcDbEntity
  8
0
  6
Continuous
 62
     1
100
AcDbCircle
 10
2474.103345204698
 20
-5516.230509545873
 30
0.0
 40
14.025
100
AcDbArc
 50
292.8088293180047
 51
49.63156866839371
  0
CIRCLE
  5
59C
330
6C
100
AcDbEntity
  8
0
  6
Continuous
 62
     1
100
AcDbCircle
 10
2417.503345204692
 20
-5654.105509545865
 30
0.0
 40
7.0
  0
CIRCLE
  5
59D
330
6C
100
AcDbEntity
  8
0
  6
Continuous
 62
     1
100
AcDbCircle
 10
2487.953345204704
 20
-5617.580509545863
 30
0.0
 40
11.225
  0
ARC
  5
59E
330
6C
100
AcDbEntity
  8
0
  6
Continuous
 62
     1
100
AcDbCircle
 10
2479.703345204689
 20
-5516.230509545873
 30
0.0
 40
47.675
100
AcDbArc
 50
289.6598832558881
 51
48.09520177849616
  0
LINE
  5
59F
330
6C
100
AcDbEntity
  8
0
  6
Continuous
 62
     1
100
AcDbLine
 10
2361.92834520468
 20
-5476.955509545863
 30
0.0
 11
2361.92834520468
 21
-5404.055509545862
 31
0.0
  0
LINE
  5
5A0
330
6C
100
AcDbEntity
  8
0
  6
Continuous
 62
     1
100
AcDbLine
 10
2395.578345204675
 20
-5465.755509545874
 30
0.0
 11
2395.578345204675
 21
-5437.705509545871
 31
0.0
  0
LINE
  5
5A1
330
6C
100
AcDbEntity
  8
0
  6
Continuous
 62
     1
100
AcDbLine
 10
2353.503345204692
 20
-5538.655509545861
 30
0.0
 11
2373.128345204692
 21
-5516.230509545873
 31
0.0
  0
CIRCLE
  5
5A2
330
6C
100
AcDbEntity
  8
0
  6
Continuous
 62
     1
100
AcDbCircle
 10
2343.528345204686
 20
-5682.580509545863
 30
0.0
 40
7.0
  0
ARC
  5
5A3
330
6C
100
AcDbEntity
  8
0
  6
Continuous
 62
     1
100
AcDbCircle
 10
2157.17834520468
 20
-5605.980509545865
 30
0.0
 40
47.675
100
AcDbArc
 50
298.648837542432
 51
80.00069953574971
  0
LINE
  5
5A4
330
6C
100
AcDbEntity
  8
0
  6
Continuous
 62
     1
100
AcDbLine
 10
2188.028345204686
 20
-5544.280509545861
 30
0.0
 11
2204.853345204683
 21
-5519.030509545868
 31
0.0
  0
CIRCLE
  5
5A5
330
6C
100
AcDbEntity
  8
0
  6
Continuous
 62
     1
100
AcDbCircle
 10
2188.42834520468
 20
-5715.580509545864
 30
0.0
 40
7.0
  0
CIRCLE
  5
5A6
330
6C
100
AcDbEntity
  8
0
  6
Continuous
 62
     1
100
AcDbCircle
 10
2266.853345204697
 20
-5703.105509545857
 30
0.0
 40
7.0
  0
LINE
  5
5A7
330
6C
100
AcDbEntity
  8
0
  6
Continuous
 62
     1
100
AcDbLine
 10
2361.92834520468
 20
-5476.955509545863
 30
0.0
 11
2392.778345204686
 21
-5496.605509545865
 31
0.0
  0
LINE
  5
5A8
330
6C
100
AcDbEntity
  8
0
  6
Continuous
 62
     1
100
AcDbLine
 10
2361.92834520468
 20
-5404.055509545862
 30
0.0
 11
2518.978345204698
 21
-5404.055509545862
 31
0.0
  0
ARC
  5
5A9
330
6C
100
AcDbEntity
  8
0
  6
Continuous
 62
     1
100
AcDbCircle
 10
2437.578345204704
 20
-5429.955509545863
 30
0.0
 40
107.7
100
AcDbArc
 50
233.23917116774
 51
292.9278597961274
  0
ARC
  5
5AA
330
6C
100
AcDbEntity
  8
0
  6
Continuous
 62
     1
100
AcDbCircle
 10
2450.253345204692
 20
-5387.605509545872
 30
0.0
 40
179.375
100
AcDbArc
 50
237.3597724205529
 51
284.6907362059786
  0
ARC
  5
5AB
330
6C
100
AcDbEntity
  8
0
  6
Continuous
 62
     1
100
AcDbCircle
 10
2442.903345204686
 20
-5557.230509545865
 30
0.0
 40
102.975
100
AcDbArc
 50
48.09246408983252
 51
117.3549874430141
  0
ARC
  5
5AC
330
6C
100
AcDbEntity
  8
0
  6
Continuous
 62
     1
100
AcDbCircle
 10
2431.528345204686
 20
-5566.080509545863
 30
0.0
 40
79.6
100
AcDbArc
 50
49.52367294805966
 51
119.150793620463
  0
LINE
  5
5AD
330
6C
100
AcDbEntity
  8
0
  6
Continuous
 62
     1
100
AcDbLine
 10
2395.578345204675
 20
-5437.705509545871
 30
0.0
 11
2518.978345204698
 21
-5437.705509545871
 31
0.0
  0
LINE
  5
5AE
330
6C
100
AcDbEntity
  8
0
  6
Continuous
 62
     1
100
AcDbLine
 10
2010.953345204689
 20
-4428.080509545863
 30
0.0
 11
2039.003345204692
 21
-4428.080509545863
 31
0.0
  0
CIRCLE
  5
5AF
330
6C
100
AcDbEntity
  8
0
  6
Continuous
 62
     1
100
AcDbCircle
 10
2109.503345204692
 20
-4960.930509545862
 30
0.0
 40
16.375
  0
LINE
  5
5B0
330
6C
100
AcDbEntity
  8
0
  6
Continuous
 62
     1
100
AcDbLine
 10
1983.103345204698
 20
-5046.655509545868
 30
0.0
 11
2023.778345204686
 21
-5087.330509545864
 31
0.0
  0
LINE
  5
5B1
330
6C
100
AcDbEntity
  8
0
  6
Continuous
 62
     1
100
AcDbLine
 10
1851.878345204692
 20
-4388.805509545854
 30
0.0
 11
1868.728345204697
 21
-4388.805509545854
 31
0.0
  0
LINE
  5
5B2
330
6C
100
AcDbEntity
  8
0
  6
Continuous
 62
     1
100
AcDbLine
 10
1868.328345204674
 20
-4506.605509545865
 30
0.0
 11
1896.378345204692
 21
-4506.605509545865
 31
0.0
  0
LINE
  5
5B3
330
6C
100
AcDbEntity
  8
0
  6
Continuous
 62
     1
100
AcDbLine
 10
1868.728345204697
 20
-4506.605509545865
 30
0.0
 11
1868.728345204697
 21
-4388.805509545854
 31
0.0
  0
LINE
  5
5B4
330
6C
100
AcDbEntity
  8
0
  6
Continuous
 62
     1
100
AcDbLine
 10
1728.103345204697
 20
-4506.605509545865
 30
0.0
 11
1756.153345204686
 21
-4506.605509545865
 31
0.0
  0
LINE
  5
5B5
330
6C
100
AcDbEntity
  8
0
  6
Continuous
 62
     1
100
AcDbLine
 10
1711.653345204686
 20
-4388.805509545854
 30
0.0
 11
1728.478345204697
 21
-4388.805509545854
 31
0.0
  0
LINE
  5
5B6
330
6C
100
AcDbEntity
  8
0
  6
Continuous
 62
     1
100
AcDbLine
 10
1728.478345204697
 20
-4506.605509545865
 30
0.0
 11
1728.478345204697
 21
-4388.805509545854
 31
0.0
  0
LINE
  5
5B7
330
6C
100
AcDbEntity
  8
0
  6
Continuous
 62
     1
100
AcDbLine
 10
1698.328345204674
 20
-4748.080509545864
 30
0.0
 11
1719.578345204674
 21
-4711.280509545875
 31
0.0
  0
LINE
  5
5B8
330
6C
100
AcDbEntity
  8
0
  6
Continuous
 62
     1
100
AcDbLine
 10
1698.328345204674
 20
-4748.080509545864
 30
0.0
 11
2058.42834520468
 21
-4973.980509545865
 31
0.0
  0
LINE
  5
5B9
330
6C
100
AcDbEntity
  8
0
  6
Continuous
 62
     1
100
AcDbLine
 10
1719.578345204674
 20
-4711.280509545875
 30
0.0
 11
2114.17834520468
 21
-4920.180509545869
 31
0.0
  0
ARC
  5
5BA
330
6C
100
AcDbEntity
  8
0
  6
Continuous
 62
     1
100
AcDbCircle
 10
2109.503345204692
 20
-5526.605509545865
 30
0.0
 40
102.025
100
AcDbArc
 50
247.0818348131786
 51
292.9311051571075
  0
ARC
  5
5BB
330
6C
100
AcDbEntity
  8
0
  6
Continuous
 62
     1
100
AcDbCircle
 10
2109.503345204692
 20
-5685.780509545868
 30
0.0
 40
102.025
100
AcDbArc
 50
67.06889484289253
 51
112.9181651868213
  0
ARC
  5
5BC
330
6C
100
AcDbEntity
  8
0
  6
Continuous
 62
     1
100
AcDbCircle
 10
2075.853345204698
 20
-5606.205509545864
 30
0.0
 40
15.425
100
AcDbArc
 50
112.8962090088712
 51
247.0678995622183
  0
LINE
  5
5BD
330
6C
100
AcDbEntity
  8
0
  6
Continuous
 62
     1
100
AcDbLine
 10
2053.203345204703
 20
-5563.905509545868
 30
0.0
 11
2053.428345204681
 21
-5563.905509545868
 31
0.0
  0
LINE
  5
5BE
330
6C
100
AcDbEntity
  8
0
  6
Continuous
 62
     1
100
AcDbLine
 10
2053.428345204681
 20
-5563.855509545873
 30
0.0
 11
2053.428345204681
 21
-5563.455509545871
 31
0.0
  0
ARC
  5
5BF
330
6C
100
AcDbEntity
  8
0
  6
Continuous
 62
     1
100
AcDbCircle
 10
2109.503345204692
 20
-5589.130509545867
 30
0.0
 40
61.70000000000001
100
AcDbArc
 50
103.7097111662502
 51
155.8654167476808
  0
CIRCLE
  5
5C0
330
6C
100
AcDbEntity
  8
0
  6
Continuous
 62
     1
100
AcDbCircle
 10
2109.17834520468
 20
-5719.055509545862
 30
0.0
 40
11.225
  0
CIRCLE
  5
5C1
330
6C
100
AcDbEntity
  8
0
  6
Continuous
 62
     1
100
AcDbCircle
 10
1951.55334520468
 20
-5703.18050954587
 30
0.0
 40
7.0
  0
ARC
  5
5C2
330
6C
100
AcDbEntity
  8
0
  6
Continuous
 62
     1
100
AcDbCircle
 10
2098.303345204695
 20
-5577.930509545862
 30
0.0
 40
84.12500000000001
100
AcDbArc
 50
91.3116278102267
 51
264.6744031978514
  0
CIRCLE
  5
5C3
330
6C
100
AcDbEntity
  8
0
  6
Continuous
 62
     1
100
AcDbCircle
 10
2029.928345204709
 20
-5715.455509545864
 30
0.0
 40
7.0
  0
LINE
  5
5C4
330
6C
100
AcDbEntity
  8
0
  6
Continuous
 62
     1
100
AcDbLine
 10
1896.378345204692
 20
-5440.505509545866
 30
0.0
 11
1896.378345204692
 21
-5409.655509545868
 31
0.0
  0
LINE
  5
5C5
330
6C
100
AcDbEntity
  8
0
  6
Continuous
 62
     1
100
AcDbLine
 10
1722.478345204698
 20
-5440.505509545866
 30
0.0
 11
1722.478345204698
 21
-5409.655509545868
 31
0.0
  0
LINE
  5
5C6
330
6C
100
AcDbEntity
  8
0
  6
Continuous
 62
     1
100
AcDbLine
 10
1722.478345204698
 20
-5409.655509545868
 30
0.0
 11
1896.378345204692
 21
-5409.655509545868
 31
0.0
  0
LINE
  5
5C7
330
6C
100
AcDbEntity
  8
0
  6
Continuous
 62
     1
100
AcDbLine
 10
1722.478345204698
 20
-5440.505509545866
 30
0.0
 11
1851.503345204692
 21
-5440.505509545866
 31
0.0
  0
CIRCLE
  5
5C8
330
6C
100
AcDbEntity
  8
0
  6
Continuous
 62
     1
100
AcDbCircle
 10
1800.778345204686
 20
-5654.155509545868
 30
0.0
 40
7.0
  0
CIRCLE
  5
5C9
330
6C
100
AcDbEntity
  8
0
  6
Continuous
 62
     1
100
AcDbCircle
 10
1874.878345204692
 20
-5682.580509545863
 30
0.0
 40
7.0
  0
CIRCLE
  5
5CA
330
6C
100
AcDbEntity
  8
0
  6
Continuous
 62
     1
100
AcDbCircle
 10
1730.403345204686
 20
-5617.580509545863
 30
0.0
 40
11.225
  0
LINE
  5
5CB
330
6C
100
AcDbEntity
  8
0
  6
Continuous
 62
     1
100
AcDbLine
 10
1761.753345204692
 20
-5566.705509545863
 30
0.0
 11
1806.628345204692
 21
-5566.705509545863
 31
0.0
  0
LINE
  5
5CC
330
6C
100
AcDbEntity
  8
0
  6
Continuous
 62
     1
100
AcDbLine
 10
1806.628345204692
 20
-5566.705509545863
 30
0.0
 11
1896.378345204692
 21
-5440.505509545866
 31
0.0
  0
LINE
  5
5CD
330
6C
100
AcDbEntity
  8
0
  6
Continuous
 62
     1
100
AcDbLine
 10
1761.753345204692
 20
-5566.705509545863
 30
0.0
 11
1851.503345204692
 21
-5440.505509545866
 31
0.0
  0
LINE
  5
5CE
330
6C
100
AcDbEntity
  8
0
  6
Continuous
 62
     1
100
AcDbLine
 10
1983.103345204698
 20
-5046.655509545868
 30
0.0
 11
2638.05334520468
 21
-4414.680509545862
 31
0.0
  0
ARC
  5
5CF
330
6C
100
AcDbEntity
  8
0
  6
Continuous
 62
     1
100
AcDbCircle
 10
2120.728345204669
 20
-5813.005509545867
 30
0.0
 40
258.075
100
AcDbArc
 50
80.01195945644065
 51
105.1670141051833
  0
ARC
  5
5D0
330
6C
100
AcDbEntity
  8
0
  6
Continuous
 62
     1
100
AcDbCircle
 10
2107.878345204692
 20
-5475.105509545873
 30
0.0
 40
187.175
100
AcDbArc
 50
264.6774857611082
 51
292.6740252969542
  0
ARC
  5
5D1
330
6C
100
AcDbEntity
  8
0
  6
Continuous
 62
     1
100
AcDbCircle
 10
2101.428345204695
 20
-5718.155509545876
 30
0.0
 40
224.35
100
AcDbArc
 50
62.55275433600154
 51
91.28976732793075
  0
ARC
  5
5D2
330
6C
100
AcDbEntity
  8
0
  6
Continuous
 62
     1
100
AcDbCircle
 10
2115.453345204704
 20
-5697.505509545866
 30
0.0
 40
169.55
100
AcDbArc
 50
64.65543148009117
 51
96.96890886410365
  0
ARC
  5
5D3
330
6C
100
AcDbEntity
  8
0
  6
Continuous
 62
     1
100
AcDbCircle
 10
2143.17834520468
 20
-5606.205509545864
 30
0.0
 40
15.425
100
AcDbArc
 50
292.9321004377817
 51
67.10379099112879
  0
LINE
  5
5D4
330
6C
100
AcDbEntity
  8
0
  6
Continuous
 62
     1
100
AcDbLine
 10
2118.328345204675
 20
-4400.03050954586
 30
0.0
 11
2218.878345204692
 21
-4400.03050954586
 31
0.0
  0
LINE
  5
5D5
330
6C
100
AcDbEntity
  8
0
  6
Continuous
 62
     1
100
AcDbLine
 10
2073.053345204709
 20
-4428.080509545863
 30
0.0
 11
2218.878345204692
 21
-4428.080509545863
 31
0.0
  0
LINE
  5
5D6
330
6C
100
AcDbEntity
  8
0
  6
Continuous
 62
     1
100
AcDbLine
 10
2104.978345204698
 20
-5003.180509545869
 30
0.0
 11
2217.55334520468
 21
-5073.80550954587
 31
0.0
  0
LINE
  5
5D7
330
6C
100
AcDbEntity
  8
0
  6
Continuous
 62
     1
100
AcDbLine
 10
1756.153345204686
 20
-4506.605509545865
 30
0.0
 11
1756.153345204686
 21
-4343.930509545869
 31
0.0
  0
LINE
  5
5D8
330
6C
100
AcDbEntity
  8
0
  6
Continuous
 62
     1
100
AcDbLine
 10
1851.878345204692
 20
-4388.180509545869
 30
0.0
 11
1851.878345204692
 21
-4365.755509545873
 31
0.0
  0
LINE
  5
5D9
330
6C
100
AcDbEntity
  8
0
  6
Continuous
 62
     1
100
AcDbLine
 10
1711.653345204686
 20
-4388.180509545869
 30
0.0
 11
1711.653345204686
 21
-4365.755509545873
 31
0.0
  0
LINE
  5
5DA
330
6C
100
AcDbEntity
  8
0
  6
Continuous
 62
     1
100
AcDbLine
 10
2440.05334520468
 20
-4495.380509545866
 30
0.0
 11
2440.05334520468
 21
-4332.730509545864
 31
0.0
  0
ARC
  5
5DB
330
6C
100
AcDbEntity
  8
0
  6
Continuous
 62
     1
100
AcDbCircle
 10
2137.278345204686
 20
-4428.080509545863
 30
0.0
 40
64.5
100
AcDbArc
 50
119.1752719778087
 51
180.0
  0
LINE
  5
5DC
330
6C
100
AcDbEntity
  8
0
  6
Continuous
 62
     1
100
AcDbLine
 10
2011.353345204669
 20
-4428.080509545863
 30
0.0
 11
2011.353345204669
 21
-4310.280509545868
 31
0.0
  0
LINE
  5
5DD
330
6C
100
AcDbEntity
  8
0
  6
Continuous
 62
     1
100
AcDbLine
 10
1896.378345204692
 20
-4506.605509545865
 30
0.0
 11
1896.378345204692
 21
-4343.930509545869
 31
0.0
  0
LINE
  5
5DE
330
6C
100
AcDbEntity
  8
0
  6
Continuous
 62
     1
100
AcDbLine
 10
2118.328345204675
 20
-4400.03050954586
 30
0.0
 11
2194.428345204681
 21
-4357.505509545866
 31
0.0
  0
LINE
  5
5DF
330
6C
100
AcDbEntity
  8
0
  6
Continuous
 62
     1
100
AcDbLine
 10
2039.003345204692
 20
-4428.080509545863
 30
0.0
 11
2039.003345204692
 21
-4265.405509545868
 31
0.0
  0
LINE
  5
5E0
330
6C
100
AcDbEntity
  8
0
  6
Continuous
 62
     1
100
AcDbLine
 10
2412.403345204686
 20
-4495.380509545866
 30
0.0
 11
2412.403345204686
 21
-4377.580509545864
 31
0.0
  0
LINE
  5
5E1
330
6C
100
AcDbEntity
  8
0
  6
Continuous
 62
     1
100
AcDbLine
 10
2023.778345204686
 20
-5087.330509545864
 30
0.0
 11
2655.753345204692
 21
-4432.380509545867
 31
0.0
  0
LINE
  5
5E2
330
6C
100
AcDbEntity
  8
0
  6
Continuous
 62
     1
100
AcDbLine
 10
2578.878345204692
 20
-5275.03050954586
 30
0.0
 11
2664.80334520468
 21
-5201.380509545867
 31
0.0
  0
LINE
  5
5E3
330
6C
100
AcDbEntity
  8
0
  6
Continuous
 62
     1
100
AcDbLine
 10
2578.878345204692
 20
-5275.03050954586
 30
0.0
 11
2664.80334520468
 21
-5275.03050954586
 31
0.0
  0
LINE
  5
5E4
330
6C
100
AcDbEntity
  8
0
  6
Continuous
 62
     1
100
AcDbLine
 10
2535.803345204695
 20
-5308.680509545869
 30
0.0
 11
2664.80334520468
 21
-5308.680509545869
 31
0.0
  0
LINE
  5
5E5
330
6C
100
AcDbEntity
  8
0
  6
Continuous
 62
     1
100
AcDbLine
 10
2535.803345204695
 20
-5275.03050954586
 30
0.0
 11
2653.578345204703
 21
-5174.080509545871
 31
0.0
  0
ARC
  5
5E6
330
6C
100
AcDbEntity
  8
0
  6
Continuous
 62
     1
100
AcDbCircle
 10
2715.353345204698
 20
-4988.530509545868
 30
0.0
 40
114.75
100
AcDbArc
 50
55.03867232151193
 51
135.1853654562533
  0
LINE
  5
5E7
330
6C
100
AcDbEntity
  8
0
  6
Continuous
 62
     1
100
AcDbLine
 10
2633.953345204675
 20
-4907.655509545868
 30
0.0
 11
2653.578345204703
 21
-4930.080509545863
 31
0.0
  0
LINE
  5
5E8
330
6C
100
AcDbEntity
  8
0
  6
Continuous
 62
     1
100
AcDbLine
 10
2603.503345204692
 20
-4708.530509545868
 30
0.0
 11
2704.078345204689
 21
-4708.530509545868
 31
0.0
  0
LINE
  5
5E9
330
6C
100
AcDbEntity
  8
0
  6
Continuous
 62
     1
100
AcDbLine
 10
2603.503345204692
 20
-4708.530509545868
 30
0.0
 11
2679.603345204698
 21
-4666.005509545867
 31
0.0
  0
LINE
  5
5EA
330
6C
100
AcDbEntity
  8
0
  6
Continuous
 62
     1
100
AcDbLine
 10
2591.003345204692
 20
-4680.205509545871
 30
0.0
 11
2664.578345204674
 21
-4639.080509545871
 31
0.0
  0
ARC
  5
5EB
330
6C
100
AcDbEntity
  8
0
  6
Continuous
 62
     1
100
AcDbCircle
 10
2630.428345204681
 20
-4660.855509545864
 30
0.0
 40
61.70000000000001
100
AcDbArc
 50
54.52445046304027
 51
147.0179669560562
  0
ARC
  5
5EC
330
6C
100
AcDbEntity
  8
0
  6
Continuous
 62
     1
100
AcDbCircle
 10
2630.428345204681
 20
-4660.855509545864
 30
0.0
 40
92.55
100
AcDbArc
 50
54.53611750497349
 51
147.0183117867856
  0
LINE
  5
5ED
330
6C
100
AcDbEntity
  8
0
  6
Continuous
 62
     1
100
AcDbLine
 10
2558.228345204669
 20
-4736.580509545871
 30
0.0
 11
2704.078345204689
 21
-4736.580509545871
 31
0.0
  0
LINE
  5
5EE
330
6C
100
AcDbEntity
  8
0
  6
Continuous
 62
     1
100
AcDbLine
 10
2638.05334520468
 20
-4414.680509545862
 30
0.0
 11
2655.753345204692
 21
-4432.380509545867
 31
0.0
  0
ARC
  5
5EF
330
6C
100
AcDbEntity
  8
0
  6
Continuous
 62
     1
100
AcDbCircle
 10
2723.803345204681
 20
-4888.005509545866
 30
0.0
 40
159.975
100
AcDbArc
 50
232.0983094256449
 51
288.3896736218488
  0
LINE
  5
5F0
330
6C
100
AcDbEntity
  8
0
  6
Continuous
 62
     1
100
AcDbLine
 10
2625.55334520468
 20
-5014.205509545863
 30
0.0
 11
2647.978345204683
 21
-4991.780509545861
 31
0.0
  0
CIRCLE
  5
5F1
330
6C
100
AcDbEntity
  8
0
  6
Continuous
 62
     1
100
AcDbCircle
 10
1601.828345204674
 20
-4398.055509545869
 30
0.0
 40
7.0
  0
CIRCLE
  5
5F2
330
6C
100
AcDbEntity
  8
0
  6
Continuous
 62
     1
100
AcDbCircle
 10
1453.078345204674
 20
-4582.705509545871
 30
0.0
 40
11.225
  0
ARC
  5
5F3
330
6C
100
AcDbEntity
  8
0
  6
Continuous
 62
     1
100
AcDbCircle
 10
1476.428345204695
 20
-4557.03050954586
 30
0.0
 40
42.075
100
AcDbArc
 50
293.0599683560309
 51
336.3452710186964
  0
LINE
  5
5F4
330
6C
100
AcDbEntity
  8
0
  6
Continuous
 62
     1
100
AcDbLine
 10
1514.953345204674
 20
-4573.905509545861
 30
0.0
 11
1537.378345204692
 21
-4573.905509545861
 31
0.0
  0
LINE
  5
5F5
330
6C
100
AcDbEntity
  8
0
  6
Continuous
 62
     1
100
AcDbLine
 10
1492.903345204686
 20
-4618.155509545875
 30
0.0
 11
1492.903345204686
 21
-4595.730509545872
 31
0.0
  0
LINE
  5
5F6
330
6C
100
AcDbEntity
  8
0
  6
Continuous
 62
     1
100
AcDbLine
 10
1492.903345204686
 20
-4618.78050954586
 30
0.0
 11
1509.728345204697
 21
-4618.78050954586
 31
0.0
  0
CIRCLE
  5
5F7
330
6C
100
AcDbEntity
  8
0
  6
Continuous
 62
     1
100
AcDbCircle
 10
1495.828345204674
 20
-4515.855509545865
 30
0.0
 40
7.0
  0
LINE
  5
5F8
330
6C
100
AcDbEntity
  8
0
  6
Continuous
 62
     1
100
AcDbLine
 10
1509.353345204697
 20
-4736.580509545871
 30
0.0
 11
1537.378345204692
 21
-4736.580509545871
 31
0.0
  0
LINE
  5
5F9
330
6C
100
AcDbEntity
  8
0
  6
Continuous
 62
     1
100
AcDbLine
 10
1537.378345204692
 20
-4736.580509545871
 30
0.0
 11
1537.378345204692
 21
-4573.905509545861
 31
0.0
  0
LINE
  5
5FA
330
6C
100
AcDbEntity
  8
0
  6
Continuous
 62
     1
100
AcDbLine
 10
1509.728345204697
 20
-4736.580509545871
 30
0.0
 11
1509.728345204697
 21
-4618.78050954586
 31
0.0
  0
CIRCLE
  5
5FB
330
6C
100
AcDbEntity
  8
0
  6
Continuous
 62
     1
100
AcDbCircle
 10
1545.703345204703
 20
-4454.155509545868
 30
0.0
 40
7.0
  0
ARC
  5
5FC
330
6C
100
AcDbEntity
  8
0
  6
Continuous
 62
     1
100
AcDbCircle
 10
1546.528345204686
 20
-4936.130509545867
 30
0.0
 40
15.425
100
AcDbArc
 50
285.3117590546147
 51
59.30523576156993
  0
LINE
  5
5FD
330
6C
100
AcDbEntity
  8
0
  6
Continuous
 62
     1
100
AcDbLine
 10
1563.128345204692
 20
-4981.055509545862
 30
0.0
 11
1563.353345204698
 21
-4981.055509545862
 31
0.0
  0
LINE
  5
5FE
330
6C
100
AcDbEntity
  8
0
  6
Continuous
 62
     1
100
AcDbLine
 10
1563.078345204674
 20
-4981.45550954587
 30
0.0
 11
1563.128345204692
 21
-4981.130509545867
 31
0.0
  0
ARC
  5
5FF
330
6C
100
AcDbEntity
  8
0
  6
Continuous
 62
     1
100
AcDbCircle
 10
1479.853345204683
 20
-4927.155509545868
 30
0.0
 40
15.425
100
AcDbArc
 50
105.3117590546146
 51
239.3052357615699
  0
ARC
  5
600
330
6C
100
AcDbEntity
  8
0
  6
Continuous
 62
     1
100
AcDbCircle
 10
1497.353345204683
 20
-5061.780509545861
 30
0.0
 40
187.175
100
AcDbArc
 50
77.00423692578088
 51
105.0107885016368
  0
ARC
  5
601
330
6C
100
AcDbEntity
  8
0
  6
Continuous
 62
     1
100
AcDbCircle
 10
1520.55334520468
 20
-4961.155509545861
 30
0.0
 40
84.12500000000001
100
AcDbArc
 50
263.6165462908228
 51
76.9887790681674
  0
ARC
  5
602
330
6C
100
AcDbEntity
  8
0
  6
Continuous
 62
     1
100
AcDbCircle
 10
1529.653345204686
 20
-4725.180509545869
 30
0.0
 40
258.075
100
AcDbArc
 50
252.3445852662933
 51
277.5029531817434
  0
ARC
  5
603
330
6C
100
AcDbEntity
  8
0
  6
Continuous
 62
     1
100
AcDbCircle
 10
1502.55334520468
 20
-5010.505509545867
 30
0.0
 40
102.025
100
AcDbArc
 50
59.39052657276498
 51
105.2464896349352
  0
ARC
  5
604
330
6C
100
AcDbEntity
  8
0
  6
Continuous
 62
     1
100
AcDbCircle
 10
1523.828345204703
 20
-4852.780509545868
 30
0.0
 40
102.025
100
AcDbArc
 50
239.390526572765
 51
285.2464896349352
  0
ARC
  5
605
330
6C
100
AcDbEntity
  8
0
  6
Continuous
 62
     1
100
AcDbCircle
 10
1510.92834520468
 20
-4948.530509545868
 30
0.0
 40
61.70000000000001
100
AcDbArc
 50
276.0454497856531
 51
328.1841171963659
  0
CIRCLE
  5
606
330
6C
100
AcDbEntity
  8
0
  6
Continuous
 62
     1
100
AcDbCircle
 10
1388.078345204674
 20
-4727.20550954587
 30
0.0
 40
7.0
  0
CIRCLE
  5
607
330
6C
100
AcDbEntity
  8
0
  6
Continuous
 62
     1
100
AcDbCircle
 10
1416.528345204686
 20
-4653.105509545857
 30
0.0
 40
7.0
  0
LINE
  5
608
330
6C
100
AcDbEntity
  8
0
  6
Continuous
 62
     1
100
AcDbLine
 10
1407.103345204698
 20
-5005.305509545863
 30
0.0
 11
1427.128345204692
 21
-4982.530509545875
 31
0.0
  0
CIRCLE
  5
609
330
6C
100
AcDbEntity
  8
0
  6
Continuous
 62
     1
100
AcDbCircle
 10
1367.503345204692
 20
-4803.880509545866
 30
0.0
 40
7.0
  0
CIRCLE
  5
60A
330
6C
100
AcDbEntity
  8
0
  6
Continuous
 62
     1
100
AcDbCircle
 10
1355.203345204674
 20
-4882.230509545865
 30
0.0
 40
7.0
  0
CIRCLE
  5
60B
330
6C
100
AcDbEntity
  8
0
  6
Continuous
 62
     1
100
AcDbCircle
 10
1351.628345204692
 20
-4961.480509545864
 30
0.0
 40
11.225
  0
CIRCLE
  5
60C
330
6C
100
AcDbEntity
  8
0
  6
Continuous
 62
     1
100
AcDbCircle
 10
1355.103345204698
 20
-5040.755509545874
 30
0.0
 40
7.0
  0
ARC
  5
60D
330
6C
100
AcDbEntity
  8
0
  6
Continuous
 62
     1
100
AcDbCircle
 10
1519.503345204692
 20
-4840.330509545871
 30
0.0
 40
169.55
100
AcDbArc
 50
236.9917139773568
 51
269.2989366994301
  0
ARC
  5
60E
330
6C
100
AcDbEntity
  8
0
  6
Continuous
 62
     1
100
AcDbCircle
 10
1536.153345204686
 20
-4821.780509545861
 30
0.0
 40
224.35
100
AcDbArc
 50
234.8861119083016
 51
263.6146823726199
  0
ARC
  5
60F
330
6C
100
AcDbEntity
  8
0
  6
Continuous
 62
     1
100
AcDbCircle
 10
1465.92834520468
 20
-4925.480509545865
 30
0.0
 40
47.675
100
AcDbArc
 50
110.9748974319047
 51
252.3135395336754
  0
ARC
  5
610
330
6C
100
AcDbEntity
  8
0
  6
Continuous
 62
     1
100
AcDbCircle
 10
1613.103345204698
 20
-5286.255509545867
 30
0.0
 40
16.825
100
AcDbArc
 50
287.0403832051177
 51
72.95961679488231
  0
ARC
  5
611
330
6C
100
AcDbEntity
  8
0
  6
Continuous
 62
     1
100
AcDbCircle
 10
1610.30334520468
 20
-5218.955509545871
 30
0.0
 40
11.225
100
AcDbArc
 50
288.6767017321679
 51
71.36401417907132
  0
ARC
  5
612
330
6C
100
AcDbEntity
  8
0
  6
Continuous
 62
     1
100
AcDbCircle
 10
1621.528345204686
 20
-5218.955509545871
 30
0.0
 40
36.45
100
AcDbArc
 50
307.9300823524795
 51
69.02162353673057
  0
CIRCLE
  5
613
330
6C
100
AcDbEntity
  8
0
  6
Continuous
 62
     1
100
AcDbCircle
 10
1453.078345204674
 20
-5340.280509545868
 30
0.0
 40
11.225
  0
ARC
  5
614
330
6C
100
AcDbEntity
  8
0
  6
Continuous
 62
     1
100
AcDbCircle
 10
1540.203345204674
 20
-5286.255509545867
 30
0.0
 40
16.825
100
AcDbArc
 50
107.0403832051177
 51
252.9596167948823
  0
ARC
  5
615
330
6C
100
AcDbEntity
  8
0
  6
Continuous
 62
     1
100
AcDbCircle
 10
1543.003345204692
 20
-5218.955509545871
 30
0.0
 40
11.225
100
AcDbArc
 50
108.6359858209287
 51
251.3232982678321
  0
ARC
  5
616
330
6C
100
AcDbEntity
  8
0
  6
Continuous
 62
     1
100
AcDbCircle
 10
1531.778345204686
 20
-5218.955509545871
 30
0.0
 40
36.45
100
AcDbArc
 50
110.9783764632694
 51
232.0699176475205
  0
ARC
  5
617
330
6C
100
AcDbEntity
  8
0
  6
Continuous
 62
     1
100
AcDbCircle
 10
1526.17834520468
 20
-5286.255509545867
 30
0.0
 40
42.075
100
AcDbArc
 50
113.5923082421729
 51
238.6092384174226
  0
CIRCLE
  5
618
330
6C
100
AcDbEntity
  8
0
  6
Continuous
 62
     1
100
AcDbCircle
 10
1495.778345204686
 20
-5407.180509545862
 30
0.0
 40
7.0
  0
ARC
  5
619
330
6C
100
AcDbEntity
  8
0
  6
Continuous
 62
     1
100
AcDbCircle
 10
1576.653345204686
 20
-5167.505509545867
 30
0.0
 40
141.175
100
AcDbArc
 50
252.9390644336138
 51
287.0609355663863
  0
ARC
  5
61A
330
6C
100
AcDbEntity
  8
0
  6
Continuous
 62
     1
100
AcDbCircle
 10
1576.653345204686
 20
-5405.005509545866
 30
0.0
 40
141.175
100
AcDbArc
 50
72.93906443361372
 51
107.0609355663862
  0
ARC
  5
61B
330
6C
100
AcDbEntity
  8
0
  6
Continuous
 62
     1
100
AcDbCircle
 10
1576.653345204686
 20
-5119.605509545865
 30
0.0
 40
116.175
100
AcDbArc
 50
251.2920304689029
 51
288.7079695310971
  0
ARC
  5
61C
330
6C
100
AcDbEntity
  8
0
  6
Continuous
 62
     1
100
AcDbCircle
 10
1576.653345204686
 20
-5318.280509545861
 30
0.0
 40
116.175
100
AcDbArc
 50
71.29203046890293
 51
108.707969531097
  0
ARC
  5
61D
330
6C
100
AcDbEntity
  8
0
  6
Continuous
 62
     1
100
AcDbCircle
 10
1576.653345204686
 20
-5203.580509545863
 30
0.0
 40
138.775
100
AcDbArc
 50
238.599284714346
 51
301.400715285654
  0
ARC
  5
61E
330
6C
100
AcDbEntity
  8
0
  6
Continuous
 62
     1
100
AcDbCircle
 10
1576.653345204686
 20
-5335.780509545868
 30
0.0
 40
161.7
100
AcDbArc
 50
68.99493098627171
 51
111.0050690137283
  0
CIRCLE
  5
61F
330
6C
100
AcDbEntity
  8
0
  6
Continuous
 62
     1
100
AcDbCircle
 10
1545.753345204692
 20
-5468.83050954587
 30
0.0
 40
7.0
  0
CIRCLE
  5
620
330
6C
100
AcDbEntity
  8
0
  6
Continuous
 62
     1
100
AcDbCircle
 10
1601.828345204674
 20
-5524.980509545858
 30
0.0
 40
7.0
  0
CIRCLE
  5
621
330
6C
100
AcDbEntity
  8
0
  6
Continuous
 62
     1
100
AcDbCircle
 10
1388.078345204674
 20
-5195.830509545871
 30
0.0
 40
7.0
  0
CIRCLE
  5
622
330
6C
100
AcDbEntity
  8
0
  6
Continuous
 62
     1
100
AcDbCircle
 10
1416.578345204689
 20
-5269.830509545863
 30
0.0
 40
7.0
  0
CIRCLE
  5
623
330
6C
100
AcDbEntity
  8
0
  6
Continuous
 62
     1
100
AcDbCircle
 10
1367.55334520468
 20
-5119.155509545868
 30
0.0
 40
7.0
  0
CIRCLE
  5
624
330
6C
100
AcDbEntity
  8
4
100
AcDbCircle
 10
2109.503345204692
 20
-4960.930509545862
 30
0.0
 40
862.5
  0
CIRCLE
  5
625
330
6C
100
AcDbEntity
  8
4
100
AcDbCircle
 10
2109.503345204692
 20
-4960.930509545862
 30
0.0
 40
875.0
  0
CIRCLE
  5
626
330
6C
100
AcDbEntity
  8
4
100
AcDbCircle
 10
2109.503345204692
 20
-4960.930509545862
 30
0.0
 40
812.5
  0
CIRCLE
  5
627
330
6C
100
AcDbEntity
  8
0
  6
Continuous
 62
     1
100
AcDbCircle
 10
1663.528345204686
 20
-5574.830509545864
 30
0.0
 40
7.0
  0
ARC
  5
628
330
6C
100
AcDbEntity
  8
0
  6
Continuous
 62
     1
100
AcDbCircle
 10
1627.128345204692
 20
-5286.255509545867
 30
0.0
 40
42.075
100
AcDbArc
 50
301.3907615825774
 51
66.407691757827
  0
CIRCLE
  5
629
330
6C
100
AcDbEntity
  8
0
  6
Continuous
 62
     1
100
AcDbCircle
 10
1638.353345204697
 20
-4658.03050954586
 30
0.0
 40
44.87499999999999
  0
CIRCLE
  5
62A
330
6C
100
AcDbEntity
  8
0
  6
Continuous
 62
     1
100
AcDbCircle
 10
1638.353345204697
 20
-4658.03050954586
 30
0.0
 40
78.525
  0
CIRCLE
  5
62B
330
6C
100
AcDbEntity
  8
0
  6
Continuous
 62
     1
100
AcDbCircle
 10
1663.478345204698
 20
-4348.080509545863
 30
0.0
 40
7.0
  0
TEXT
  5
62C
330
6C
100
AcDbEntity
  8
MOJI
  6
Continuous
 62
     4
100
AcDbText
 10
16000.2285754295
 20
-11630.00003801615
 30
0.0
 40
300.0
  1
DC5.4Ｖ　450mW
100
AcDbText
  0
LINE
  5
62D
330
6C
100
AcDbEntity
  8
SUNPO
  6
Continuous
 62
     1
100
AcDbLine
 10
2638.097485105769
 20
-5835.930470576364
 30
0.0
 11
5797.418410817714
 21
-5835.930470576364
 31
0.0
  0
LINE
  5
62E
330
6C
100
AcDbEntity
  8
SUNPO
  6
Continuous
 62
     1
100
AcDbLine
 10
5697.418410817714
 20
-6085.930470576364
 30
0.0
 11
5697.418410817714
 21
-16835.93047057636
 31
0.0
  0
LINE
  5
62F
330
6C
100
AcDbEntity
  8
SUNPO
  6
Continuous
 62
     1
100
AcDbLine
 10
2749.472485105769
 20
-12085.93047057636
 30
0.0
 11
5147.720458291791
 21
-12085.93047057636
 31
0.0
  0
LINE
  5
630
330
6C
100
AcDbEntity
  8
SUNPO
  6
Continuous
 62
     1
100
AcDbLine
 10
5047.720458291792
 20
-12335.93047057636
 30
0.0
 11
5047.720458291792
 21
-16835.93047057636
 31
0.0
  0
LINE
  5
631
330
6C
100
AcDbEntity
  8
SUNPO
  6
Continuous
 62
     1
100
AcDbLine
 10
2638.097485105769
 20
-4085.930470576363
 30
0.0
 11
5797.418410817714
 21
-4085.930470576363
 31
0.0
  0
LINE
  5
632
330
6C
100
AcDbEntity
  8
SUNPO
  6
Continuous
 62
     1
100
AcDbLine
 10
2638.097485105769
 20
-5835.930470576364
 30
0.0
 11
5797.418410817714
 21
-5835.930470576364
 31
0.0
  0
LINE
  5
633
330
6C
100
AcDbEntity
  8
SUNPO
  6
Continuous
 62
     1
100
AcDbLine
 10
5697.418410817714
 20
-4335.930470576363
 30
0.0
 11
5697.418410817714
 21
-5585.930470576364
 31
0.0
  0
LINE
  5
634
330
6C
100
AcDbEntity
  8
SUNPO
  6
Continuous
 62
     1
100
AcDbLine
 10
3888.097485105769
 20
-19210.93047057636
 30
0.0
 11
5797.418410817714
 21
-19210.93047057636
 31
0.0
  0
LINE
  5
635
330
6C
100
AcDbEntity
  8
SUNPO
  6
Continuous
 62
     1
100
AcDbLine
 10
5697.418410817714
 20
-17335.93047057636
 30
0.0
 11
5697.418410817714
 21
-18960.93047057636
 31
0.0
  0
LINE
  5
636
330
6C
100
AcDbEntity
  8
SUNPO
  6
Continuous
 62
     1
100
AcDbLine
 10
3888.097485105769
 20
-18960.93047057636
 30
0.0
 11
5147.720458291821
 21
-18960.93047057636
 31
0.0
  0
LINE
  5
637
330
6C
100
AcDbEntity
  8
SUNPO
  6
Continuous
 62
     1
100
AcDbLine
 10
3888.097485105769
 20
-19210.93047057636
 30
0.0
 11
5147.720458291821
 21
-19210.93047057636
 31
0.0
  0
LINE
  5
638
330
6C
100
AcDbEntity
  8
SUNPO
  6
Continuous
 62
     1
100
AcDbLine
 10
3888.097485105769
 20
-18960.93047057636
 30
0.0
 11
5147.720458291791
 21
-18960.93047057636
 31
0.0
  0
LINE
  5
639
330
6C
100
AcDbEntity
  8
SUNPO
  6
Continuous
 62
     1
100
AcDbLine
 10
5047.720458291792
 20
-17335.93047057636
 30
0.0
 11
5047.720458291792
 21
-18710.93047057636
 31
0.0
  0
TEXT
  5
63A
330
6C
100
AcDbEntity
  8
0
  6
Continuous
 62
     4
100
AcDbText
 10
4947.720458291791
 20
-18409.14475629065
 30
0.0
 40
300.0
  1
750
 50
90.0
100
AcDbText
  0
LINE
  5
63B
330
6C
100
AcDbEntity
  8
SUNPO
  6
Continuous
 62
     1
100
AcDbLine
 10
5089.387124958477
 20
-18710.93047057636
 30
0.0
 11
5047.720458291792
 21
-18960.93047057636
 31
0.0
  0
LINE
  5
63C
330
6C
100
AcDbEntity
  8
SUNPO
  6
Continuous
 62
     1
100
AcDbLine
 10
5047.720458291792
 20
-18960.93047057636
 30
0.0
 11
5006.053791625134
 21
-18710.93047057636
 31
0.0
  0
LINE
  5
63D
330
6C
100
AcDbEntity
  8
SUNPO
  6
Continuous
 62
     1
100
AcDbLine
 10
5047.720458291792
 20
-18960.93047057636
 30
0.0
 11
5047.720458291792
 21
-18710.93047057636
 31
0.0
  0
LINE
  5
63E
330
6C
100
AcDbEntity
  8
SUNPO
  6
Continuous
 62
     1
100
AcDbLine
 10
5006.053791625134
 20
-17335.93047057636
 30
0.0
 11
5047.720458291792
 21
-17085.93047057636
 31
0.0
  0
LINE
  5
63F
330
6C
100
AcDbEntity
  8
SUNPO
  6
Continuous
 62
     1
100
AcDbLine
 10
5047.720458291792
 20
-17085.93047057636
 30
0.0
 11
5089.387124958477
 21
-17335.93047057636
 31
0.0
  0
LINE
  5
640
330
6C
100
AcDbEntity
  8
SUNPO
  6
Continuous
 62
     1
100
AcDbLine
 10
5047.720458291792
 20
-17085.93047057636
 30
0.0
 11
5047.720458291792
 21
-17335.93047057636
 31
0.0
  0
LINE
  5
641
330
6C
100
AcDbEntity
  8
SUNPO
  6
Continuous
 62
     1
100
AcDbLine
 10
5089.387124958477
 20
-18710.93047057636
 30
0.0
 11
5047.72045829182
 21
-18960.93047057636
 31
0.0
  0
LINE
  5
642
330
6C
100
AcDbEntity
  8
SUNPO
  6
Continuous
 62
     1
100
AcDbLine
 10
5047.72045829182
 20
-18960.93047057636
 30
0.0
 11
5006.053791625134
 21
-18710.93047057636
 31
0.0
  0
LINE
  5
643
330
6C
100
AcDbEntity
  8
SUNPO
  6
Continuous
 62
     1
100
AcDbLine
 10
5047.72045829182
 20
-18960.93047057636
 30
0.0
 11
5047.72045829182
 21
-18710.93047057636
 31
0.0
  0
TEXT
  5
644
330
6C
100
AcDbEntity
  8
0
  6
Continuous
 62
     4
100
AcDbText
 10
5597.4184108177
 20
-18534.14475629065
 30
0.0
 40
300.0
  1
850
 50
90.0
100
AcDbText
  0
LINE
  5
645
330
6C
100
AcDbEntity
  8
SUNPO
  6
Continuous
 62
     1
100
AcDbLine
 10
5739.085077484372
 20
-18960.93047057636
 30
0.0
 11
5697.418410817714
 21
-19210.93047057636
 31
0.0
  0
LINE
  5
646
330
6C
100
AcDbEntity
  8
SUNPO
  6
Continuous
 62
     1
100
AcDbLine
 10
5697.418410817714
 20
-19210.93047057636
 30
0.0
 11
5655.751744151029
 21
-18960.93047057636
 31
0.0
  0
LINE
  5
647
330
6C
100
AcDbEntity
  8
SUNPO
  6
Continuous
 62
     1
100
AcDbLine
 10
5697.418410817714
 20
-19210.93047057636
 30
0.0
 11
5697.418410817714
 21
-18960.93047057636
 31
0.0
  0
LINE
  5
648
330
6C
100
AcDbEntity
  8
SUNPO
  6
Continuous
 62
     1
100
AcDbLine
 10
5655.751744151043
 20
-17335.93047057636
 30
0.0
 11
5697.418410817714
 21
-17085.93047057636
 31
0.0
  0
LINE
  5
649
330
6C
100
AcDbEntity
  8
SUNPO
  6
Continuous
 62
     1
100
AcDbLine
 10
5697.418410817714
 20
-17085.93047057636
 30
0.0
 11
5739.085077484372
 21
-17335.93047057636
 31
0.0
  0
LINE
  5
64A
330
6C
100
AcDbEntity
  8
SUNPO
  6
Continuous
 62
     1
100
AcDbLine
 10
5697.418410817714
 20
-17085.93047057636
 30
0.0
 11
5697.418410817714
 21
-17335.93047057636
 31
0.0
  0
TEXT
  5
64B
330
6C
100
AcDbEntity
  8
0
  6
Continuous
 62
     4
100
AcDbText
 10
5597.4184108177
 20
-5482.359042004944
 30
0.0
 40
300.0
  1
\U+2205
 50
90.0
100
AcDbText
  0
TEXT
  5
64C
330
6C
100
AcDbEntity
  8
0
  6
Continuous
 62
     4
100
AcDbText
 10
5597.4184108177
 20
-5210.930470576364
 30
0.0
 40
300.0
  1
700
 50
90.0
100
AcDbText
  0
LINE
  5
64D
330
6C
100
AcDbEntity
  8
SUNPO
  6
Continuous
 62
     1
100
AcDbLine
 10
5739.085077484372
 20
-5585.930470576364
 30
0.0
 11
5697.418410817714
 21
-5835.930470576364
 31
0.0
  0
LINE
  5
64E
330
6C
100
AcDbEntity
  8
SUNPO
  6
Continuous
 62
     1
100
AcDbLine
 10
5697.418410817714
 20
-5835.930470576364
 30
0.0
 11
5655.751744151043
 21
-5585.930470576364
 31
0.0
  0
LINE
  5
64F
330
6C
100
AcDbEntity
  8
SUNPO
  6
Continuous
 62
     1
100
AcDbLine
 10
5697.418410817714
 20
-5835.930470576364
 30
0.0
 11
5697.418410817714
 21
-5585.930470576364
 31
0.0
  0
LINE
  5
650
330
6C
100
AcDbEntity
  8
SUNPO
  6
Continuous
 62
     1
100
AcDbLine
 10
5655.751744151043
 20
-4335.930470576363
 30
0.0
 11
5697.418410817714
 21
-4085.930470576363
 31
0.0
  0
LINE
  5
651
330
6C
100
AcDbEntity
  8
SUNPO
  6
Continuous
 62
     1
100
AcDbLine
 10
5697.418410817714
 20
-4085.930470576363
 30
0.0
 11
5739.085077484372
 21
-4335.930470576363
 31
0.0
  0
LINE
  5
652
330
6C
100
AcDbEntity
  8
SUNPO
  6
Continuous
 62
     1
100
AcDbLine
 10
5697.418410817714
 20
-4085.930470576363
 30
0.0
 11
5697.418410817714
 21
-4335.930470576363
 31
0.0
  0
TEXT
  5
653
330
6C
100
AcDbEntity
  8
0
  6
Continuous
 62
     4
100
AcDbText
 10
4947.720458291791
 20
-15114.50189914778
 30
0.0
 40
300.0
  1
2020
 50
90.0
100
AcDbText
  0
LINE
  5
654
330
6C
100
AcDbEntity
  8
SUNPO
  6
Continuous
 62
     1
100
AcDbLine
 10
5089.387124958477
 20
-16835.93047057636
 30
0.0
 11
5047.720458291792
 21
-17085.93047057636
 31
0.0
  0
LINE
  5
655
330
6C
100
AcDbEntity
  8
SUNPO
  6
Continuous
 62
     1
100
AcDbLine
 10
5047.720458291792
 20
-17085.93047057636
 30
0.0
 11
5006.053791625134
 21
-16835.93047057636
 31
0.0
  0
LINE
  5
656
330
6C
100
AcDbEntity
  8
SUNPO
  6
Continuous
 62
     1
100
AcDbLine
 10
5047.720458291792
 20
-17085.93047057636
 30
0.0
 11
5047.720458291792
 21
-16835.93047057636
 31
0.0
  0
LINE
  5
657
330
6C
100
AcDbEntity
  8
SUNPO
  6
Continuous
 62
     1
100
AcDbLine
 10
5006.053791625134
 20
-12335.93047057636
 30
0.0
 11
5047.720458291792
 21
-12085.93047057636
 31
0.0
  0
LINE
  5
658
330
6C
100
AcDbEntity
  8
SUNPO
  6
Continuous
 62
     1
100
AcDbLine
 10
5047.720458291792
 20
-12085.93047057636
 30
0.0
 11
5089.387124958477
 21
-12335.93047057636
 31
0.0
  0
LINE
  5
659
330
6C
100
AcDbEntity
  8
SUNPO
  6
Continuous
 62
     1
100
AcDbLine
 10
5047.720458291792
 20
-12085.93047057636
 30
0.0
 11
5047.720458291792
 21
-12335.93047057636
 31
0.0
  0
TEXT
  5
65A
330
6C
100
AcDbEntity
  8
0
  6
Continuous
 62
     4
100
AcDbText
 10
5597.4184108177
 20
-11989.50189914778
 30
0.0
 40
300.0
  1
4500
 50
90.0
100
AcDbText
  0
LINE
  5
65B
330
6C
100
AcDbEntity
  8
SUNPO
  6
Continuous
 62
     1
100
AcDbLine
 10
5739.085077484372
 20
-16835.93047057636
 30
0.0
 11
5697.418410817714
 21
-17085.93047057636
 31
0.0
  0
LINE
  5
65C
330
6C
100
AcDbEntity
  8
SUNPO
  6
Continuous
 62
     1
100
AcDbLine
 10
5697.418410817714
 20
-17085.93047057636
 30
0.0
 11
5655.751744151029
 21
-16835.93047057636
 31
0.0
  0
LINE
  5
65D
330
6C
100
AcDbEntity
  8
SUNPO
  6
Continuous
 62
     1
100
AcDbLine
 10
5697.418410817714
 20
-17085.93047057636
 30
0.0
 11
5697.418410817714
 21
-16835.93047057636
 31
0.0
  0
LINE
  5
65E
330
6C
100
AcDbEntity
  8
SUNPO
  6
Continuous
 62
     1
100
AcDbLine
 10
5655.751744151043
 20
-6085.930470576364
 30
0.0
 11
5697.418410817714
 21
-5835.930470576364
 31
0.0
  0
LINE
  5
65F
330
6C
100
AcDbEntity
  8
SUNPO
  6
Continuous
 62
     1
100
AcDbLine
 10
5697.418410817714
 20
-5835.930470576364
 30
0.0
 11
5739.085077484372
 21
-6085.930470576364
 31
0.0
  0
LINE
  5
660
330
6C
100
AcDbEntity
  8
SUNPO
  6
Continuous
 62
     1
100
AcDbLine
 10
5697.418410817714
 20
-5835.930470576364
 30
0.0
 11
5697.418410817714
 21
-6085.930470576364
 31
0.0
  0
LINE
  5
661
330
6C
100
AcDbEntity
  8
SUNPO
  6
Continuous
 62
     1
100
AcDbLine
 10
3858.972898429507
 20
-17085.93047057641
 30
0.0
 11
5922.278841629566
 21
-17085.93047057641
 31
0.0
  0
TEXT
  5
663
330
6C
100
AcDbEntity
  8
MOJI
  6
Continuous
 62
     4
100
AcDbText
 10
12000.2285754295
 20
-20030.00003801611
 30
0.0
 40
300.0
  1
サマータイム
100
AcDbText
  0
TEXT
  5
664
330
6C
100
AcDbEntity
  8
MOJI
  6
Continuous
 62
     4
100
AcDbText
 10
16000.2285754295
 20
-20030.00003801611
 30
0.0
 40
300.0
  1
自動式
100
AcDbText
  0
ENDSEC
  0
SECTION
  2
OBJECTS
  0
DICTIONARY
  5
C
330
0
100
AcDbDictionary
281
     1
  3
ACAD_2007HEADERVARS_RT
350
6CD
  3
ACAD_CIP_PREVIOUS_PRODUCT_INFO
350
77
  3
ACAD_COLOR
350
63
  3
ACAD_GROUP
350
D
  3
ACAD_LAYOUT
350
62
  3
ACAD_MATERIAL
350
10
  3
ACAD_MLEADERSTYLE
350
66
  3
ACAD_MLINESTYLE
350
5F
  3
ACAD_PLOTSETTINGS
350
61
  3
ACAD_PLOTSTYLENAME
350
E
  3
ACAD_SCALELIST
350
42
  3
ACAD_TABLESTYLE
350
64
  3
ACAD_VISUALSTYLE
350
29
  3
ACDB_RECOMPOSE_DATA
350
6CC
  3
AcDbVariableDictionary
350
6BF
  3
AcmDictionary
350
A4
  3
AMG
350
78
  3
AMGSNAPSETTINGS
350
3B2
  0
DICTIONARY
  5
FC
330
2
100
AcDbDictionary
280
     1
281
     1
  3
ACAD_LAYERSTATES
360
FD
  0
DICTIONARY
  5
E9
330
E8
100
AcDbDictionary
280
     1
281
     1
  0
DICTIONARY
  5
EB
330
EA
100
AcDbDictionary
280
     1
281
     1
  0
DICTIONARY
  5
ED
330
EC
100
AcDbDictionary
280
     1
281
     1
  0
DICTIONARY
  5
EF
330
EE
100
AcDbDictionary
280
     1
281
     1
  0
DICTIONARY
  5
F1
330
F0
100
AcDbDictionary
280
     1
281
     1
  0
DICTIONARY
  5
6CD
102
{ACAD_REACTORS
330
C
102
}
330
C
100
AcDbDictionary
281
     1
  3
DIMARCSYM
350
6CE
  3
DIMLTEX1
350
6D0
  3
DIMLTEX2
350
6D1
  3
DIMLTYPE
350
6CF
  0
XRECORD
  5
77
102
{ACAD_REACTORS
330
C
102
}
330
C
100
AcDbXrecord
280
     1
300
AMECH_PP
300
2012
300
AMECH_PP_F_S
  0
DICTIONARY
  5
63
102
{ACAD_REACTORS
330
C
102
}
330
C
100
AcDbDictionary
281
     1
  0
DICTIONARY
  5
D
102
{ACAD_REACTORS
330
C
102
}
330
C
100
AcDbDictionary
281
     1
  0
DICTIONARY
  5
62
102
{ACAD_REACTORS
330
C
102
}
330
C
100
AcDbDictionary
281
     1
  3
Model
350
6F
  3
レイアウト1
350
6B
  3
レイアウト2
350
73
  0
DICTIONARY
  5
10
102
{ACAD_REACTORS
330
C
102
}
330
C
100
AcDbDictionary
281
     1
  3
ByBlock
350
19
  3
ByLayer
350
11
  3
Global
350
21
  0
DICTIONARY
  5
66
102
{ACAD_REACTORS
330
C
102
}
330
C
100
AcDbDictionary
281
     1
  3
Standard
350
67
  0
DICTIONARY
  5
5F
102
{ACAD_REACTORS
330
C
102
}
330
C
100
AcDbDictionary
281
     1
  3
Standard
350
60
  0
DICTIONARY
  5
61
102
{ACAD_REACTORS
330
C
102
}
330
C
100
AcDbDictionary
281
     1
  0
ACDBDICTIONARYWDFLT
  5
E
102
{ACAD_REACTORS
330
C
102
}
330
C
100
AcDbDictionary
281
     1
  3
Normal
350
F
100
AcDbDictionaryWithDefault
340
F
  0
DICTIONARY
  5
42
102
{ACAD_REACTORS
330
C
102
}
330
C
100
AcDbDictionary
281
     1
  3
A0
350
43
  3
A1
350
44
  3
A2
350
45
  3
A3
350
46
  3
A4
350
47
  3
A5
350
48
  3
A6
350
49
  3
A7
350
4A
  3
A8
350
4B
  3
A9
350
4C
  3
B0
350
4D
  3
B1
350
4E
  3
B2
350
4F
  3
B3
350
50
  3
B4
350
51
  3
B5
350
52
  3
B6
350
53
  0
DICTIONARY
  5
64
102
{ACAD_REACTORS
330
C
102
}
330
C
100
AcDbDictionary
281
     1
  3
Standard
350
65
  0
DICTIONARY
  5
29
102
{ACAD_REACTORS
330
C
102
}
330
C
100
AcDbDictionary
281
     1
  3
2dWireframe
350
2F
  3
3dWireframe
350
FB
  3
Basic
350
2E
  3
Brighten
350
35
  3
ColorChange
350
39
  3
Conceptual
350
32
  3
Dim
350
34
  3
EdgeColorOff
350
41
  3
Facepattern
350
38
  3
Flat
350
2A
  3
FlatWithEdges
350
2B
  3
Gouraud
350
2C
  3
GouraudWithEdges
350
2D
  3
Hidden
350
31
  3
JitterOff
350
3F
  3
Linepattern
350
37
  3
OverhangOff
350
40
  3
Realistic
350
33
  3
Shaded
350
3E
  3
Shaded with edges
350
3D
  3
Shades of Gray
350
3A
  3
Sketchy
350
3B
  3
Thicken
350
36
  3
Wireframe
350
30
  3
X-Ray
350
3C
  0
XRECORD
  5
6CC
102
{ACAD_REACTORS
330
C
102
}
330
C
100
AcDbXrecord
280
     1
 90
        1
330
65
  0
DICTIONARY
  5
6BF
102
{ACAD_REACTORS
330
C
102
}
330
C
100
AcDbDictionary
281
     1
  3
CANNOSCALE
350
6C3
  3
CMLEADERSTYLE
350
6C1
  3
CTABLESTYLE
350
6C0
  3
LAYEREVAL
350
6C5
  3
LAYERNOTIFY
350
6C6
  3
LIGHTINGUNITS
350
6C4
  3
MSLTSCALE
350
6C2
  3
XCLIPFRAME
350
6C7
  0
DICTIONARY
  5
A4
102
{ACAD_REACTORS
330
C
102
}
330
C
100
AcDbDictionary
281
     1
  3
AcmStdDictionary
350
A6
  0
DICTIONARY
  5
78
102
{ACAD_REACTORS
330
C
102
}
330
C
100
AcDbDictionary
281
     1
  0
DICTIONARY
  5
3B2
102
{ACAD_REACTORS
330
C
102
}
330
C
100
AcDbDictionary
281
     1
  0
DICTIONARY
  5
FD
102
{ACAD_REACTORS
330
FC
102
}
330
FC
100
AcDbDictionary
281
     1
  0
XRECORD
  5
6CE
102
{ACAD_REACTORS
330
6CD
102
}
330
6CD
100
AcDbXrecord
280
     1
 70
     1
  0
XRECORD
  5
6D0
102
{ACAD_REACTORS
330
6CD
102
}
330
6CD
100
AcDbXrecord
280
     1
340
5B
  0
XRECORD
  5
6D1
102
{ACAD_REACTORS
330
6CD
102
}
330
6CD
100
AcDbXrecord
280
     1
340
5B
  0
XRECORD
  5
6CF
102
{ACAD_REACTORS
330
6CD
102
}
330
6CD
100
AcDbXrecord
280
     1
340
5B
  0
LAYOUT
  5
6F
102
{ACAD_REACTORS
330
62
102
}
330
62
100
AcDbPlotSettings
  1

  2
PDF Complete
  4

  6

 40
0.0
 41
0.0
 42
0.0
 43
0.0
 44
0.0
 45
0.0
 46
0.0
 47
0.0
 48
0.0
 49
0.0
140
0.0
141
0.0
142
1.0
143
1.0
 70
  1712
 72
     0
 73
     0
 74
     0
  7

 75
     0
147
1.0
 76
     0
 77
     2
 78
   300
148
0.0
149
0.0
100
AcDbLayout
  1
Model
 70
     1
 71
     0
 10
0.0
 20
0.0
 11
12.0
 21
9.0
 12
0.0
 22
0.0
 32
0.0
 14
0.0
 24
0.0
 34
0.0
 15
0.0
 25
0.0
 35
0.0
146
0.0
 13
0.0
 23
0.0
 33
0.0
 16
1.0
 26
0.0
 36
0.0
 17
0.0
 27
1.0
 37
0.0
 76
     0
330
6C
331
57
  0
LAYOUT
  5
6B
102
{ACAD_REACTORS
330
62
102
}
330
62
100
AcDbPlotSettings
  1

  2
PDF Complete
  4

  6

 40
0.0
 41
0.0
 42
0.0
 43
0.0
 44
0.0
 45
0.0
 46
0.0
 47
0.0
 48
0.0
 49
0.0
140
0.0
141
0.0
142
1.0
143
1.0
 70
   688
 72
     0
 73
     0
 74
     5
  7

 75
    16
147
1.0
 76
     0
 77
     2
 78
   300
148
0.0
149
0.0
100
AcDbLayout
  1
レイアウト1
 70
     1
 71
     1
 10
0.0
 20
0.0
 11
420.0
 21
297.0
 12
0.0
 22
0.0
 32
0.0
 14
1.000000000000000E+20
 24
1.000000000000000E+20
 34
1.000000000000000E+20
 15
-1.000000000000000E+20
 25
-1.000000000000000E+20
 35
-1.000000000000000E+20
146
0.0
 13
0.0
 23
0.0
 33
0.0
 16
1.0
 26
0.0
 36
0.0
 17
0.0
 27
1.0
 37
0.0
 76
     0
330
68
  0
LAYOUT
  5
73
102
{ACAD_REACTORS
330
62
102
}
330
62
100
AcDbPlotSettings
  1

  2
PDF Complete
  4

  6

 40
0.0
 41
0.0
 42
0.0
 43
0.0
 44
0.0
 45
0.0
 46
0.0
 47
0.0
 48
0.0
 49
0.0
140
0.0
141
0.0
142
1.0
143
1.0
 70
   688
 72
     0
 73
     0
 74
     5
  7

 75
    16
147
1.0
 76
     0
 77
     2
 78
   300
148
0.0
149
0.0
100
AcDbLayout
  1
レイアウト2
 70
     1
 71
     2
 10
0.0
 20
0.0
 11
12.0
 21
9.0
 12
0.0
 22
0.0
 32
0.0
 14
0.0
 24
0.0
 34
0.0
 15
0.0
 25
0.0
 35
0.0
146
0.0
 13
0.0
 23
0.0
 33
0.0
 16
1.0
 26
0.0
 36
0.0
 17
0.0
 27
1.0
 37
0.0
 76
     0
330
70
  0
MATERIAL
  5
19
102
{ACAD_XDICTIONARY
360
1A
102
}
102
{ACAD_REACTORS
330
10
102
}
330
10
100
AcDbMaterial
  1
ByBlock
 72
     0
 43
0.0208333333333333
 43
0.0
 43
0.0
 43
0.0
 43
0.0
 43
0.0208333333333333
 43
0.0
 43
0.0
 43
0.0
 43
0.0
 43
1.0
 43
0.0
 43
0.0
 43
0.0
 43
0.0
 43
1.0
 77
     0
 47
0.0208333333333333
 47
0.0
 47
0.0
 47
0.0
 47
0.0
 47
0.0208333333333333
 47
0.0
 47
0.0
 47
0.0
 47
0.0
 47
1.0
 47
0.0
 47
0.0
 47
0.0
 47
0.0
 47
1.0
171
     0
 49
0.0208333333333333
 49
0.0
 49
0.0
 49
0.0
 49
0.0
 49
0.0208333333333333
 49
0.0
 49
0.0
 49
0.0
 49
0.0
 49
1.0
 49
0.0
 49
0.0
 49
0.0
 49
0.0
 49
1.0
175
     0
142
0.0208333333333333
142
0.0
142
0.0
142
0.0
142
0.0
142
0.0208333333333333
142
0.0
142
0.0
142
0.0
142
0.0
142
1.0
142
0.0
142
0.0
142
0.0
142
0.0
142
1.0
179
     0
144
0.0208333333333333
144
0.0
144
0.0
144
0.0
144
0.0
144
0.0208333333333333
144
0.0
144
0.0
144
0.0
144
0.0
144
1.0
144
0.0
144
0.0
144
0.0
144
0.0
144
1.0
147
0.0208333333333333
147
0.0
147
0.0
147
0.0
147
0.0
147
0.0208333333333333
147
0.0
147
0.0
147
0.0
147
0.0
147
1.0
147
0.0
147
0.0
147
0.0
147
0.0
147
1.0
  0
MATERIAL
  5
11
102
{ACAD_XDICTIONARY
360
12
102
}
102
{ACAD_REACTORS
330
10
102
}
330
10
100
AcDbMaterial
  1
ByLayer
 72
     0
 43
0.0208333333333333
 43
0.0
 43
0.0
 43
0.0
 43
0.0
 43
0.0208333333333333
 43
0.0
 43
0.0
 43
0.0
 43
0.0
 43
1.0
 43
0.0
 43
0.0
 43
0.0
 43
0.0
 43
1.0
 77
     0
 47
0.0208333333333333
 47
0.0
 47
0.0
 47
0.0
 47
0.0
 47
0.0208333333333333
 47
0.0
 47
0.0
 47
0.0
 47
0.0
 47
1.0
 47
0.0
 47
0.0
 47
0.0
 47
0.0
 47
1.0
171
     0
 49
0.0208333333333333
 49
0.0
 49
0.0
 49
0.0
 49
0.0
 49
0.0208333333333333
 49
0.0
 49
0.0
 49
0.0
 49
0.0
 49
1.0
 49
0.0
 49
0.0
 49
0.0
 49
0.0
 49
1.0
175
     0
142
0.0208333333333333
142
0.0
142
0.0
142
0.0
142
0.0
142
0.0208333333333333
142
0.0
142
0.0
142
0.0
142
0.0
142
1.0
142
0.0
142
0.0
142
0.0
142
0.0
142
1.0
179
     0
144
0.0208333333333333
144
0.0
144
0.0
144
0.0
144
0.0
144
0.0208333333333333
144
0.0
144
0.0
144
0.0
144
0.0
144
1.0
144
0.0
144
0.0
144
0.0
144
0.0
144
1.0
147
0.0208333333333333
147
0.0
147
0.0
147
0.0
147
0.0
147
0.0208333333333333
147
0.0
147
0.0
147
0.0
147
0.0
147
1.0
147
0.0
147
0.0
147
0.0
147
0.0
147
1.0
  0
MATERIAL
  5
21
102
{ACAD_XDICTIONARY
360
22
102
}
102
{ACAD_REACTORS
330
10
102
}
330
10
100
AcDbMaterial
  1
Global
 72
     0
 43
0.0208333333333333
 43
0.0
 43
0.0
 43
0.0
 43
0.0
 43
0.0208333333333333
 43
0.0
 43
0.0
 43
0.0
 43
0.0
 43
1.0
 43
0.0
 43
0.0
 43
0.0
 43
0.0
 43
1.0
 77
     0
 47
0.0208333333333333
 47
0.0
 47
0.0
 47
0.0
 47
0.0
 47
0.0208333333333333
 47
0.0
 47
0.0
 47
0.0
 47
0.0
 47
1.0
 47
0.0
 47
0.0
 47
0.0
 47
0.0
 47
1.0
171
     0
 49
0.0208333333333333
 49
0.0
 49
0.0
 49
0.0
 49
0.0
 49
0.0208333333333333
 49
0.0
 49
0.0
 49
0.0
 49
0.0
 49
1.0
 49
0.0
 49
0.0
 49
0.0
 49
0.0
 49
1.0
175
     0
142
0.0208333333333333
142
0.0
142
0.0
142
0.0
142
0.0
142
0.0208333333333333
142
0.0
142
0.0
142
0.0
142
0.0
142
1.0
142
0.0
142
0.0
142
0.0
142
0.0
142
1.0
179
     0
144
0.0208333333333333
144
0.0
144
0.0
144
0.0
144
0.0
144
0.0208333333333333
144
0.0
144
0.0
144
0.0
144
0.0
144
1.0
144
0.0
144
0.0
144
0.0
144
0.0
144
1.0
147
0.0208333333333333
147
0.0
147
0.0
147
0.0
147
0.0
147
0.0208333333333333
147
0.0
147
0.0
147
0.0
147
0.0
147
1.0
147
0.0
147
0.0
147
0.0
147
0.0
147
1.0
  0
MLEADERSTYLE
  5
67
102
{ACAD_XDICTIONARY
360
6CA
102
}
102
{ACAD_REACTORS
330
66
102
}
330
66
100
AcDbMLeaderStyle
170
     2
171
     1
172
     0
 90
        2
 40
0.0
 41
0.0
173
     1
 91
-1056964608
340
5B
 92
       -2
290
     1
 42
0.09
291
     1
 43
0.36
  3
Standard
 44
0.18
300

342
55
174
     1
178
     6
175
     1
176
     0
 93
-1056964608
 45
0.18
292
     0
297
     0
 46
0.18
 94
-1056964608
 47
1.0
 49
1.0
140
1.0
293
     1
141
0.0
294
     1
177
     0
142
1.0
295
     0
296
     0
143
0.125
1001
ACAD_MLEADERVER
1070
     2
  0
MLINESTYLE
  5
60
102
{ACAD_REACTORS
330
5F
102
}
330
5F
100
AcDbMlineStyle
  2
STANDARD
 70
     0
  3

 62
   256
 51
90.0
 52
90.0
 71
     2
 49
0.5
 62
   256
  6
BYLAYER
 49
-0.5
 62
   256
  6
BYLAYER
  0
ACDBPLACEHOLDER
  5
F
102
{ACAD_REACTORS
330
E
102
}
330
E
  0
SCALE
  5
43
102
{ACAD_REACTORS
330
42
102
}
330
42
100
AcDbScale
 70
     0
300
1:1
140
1.0
141
1.0
290
     1
  0
SCALE
  5
44
102
{ACAD_REACTORS
330
42
102
}
330
42
100
AcDbScale
 70
     0
300
1:2
140
1.0
141
2.0
290
     0
  0
SCALE
  5
45
102
{ACAD_REACTORS
330
42
102
}
330
42
100
AcDbScale
 70
     0
300
1:4
140
1.0
141
4.0
290
     0
  0
SCALE
  5
46
102
{ACAD_REACTORS
330
42
102
}
330
42
100
AcDbScale
 70
     0
300
1:5
140
1.0
141
5.0
290
     0
  0
SCALE
  5
47
102
{ACAD_REACTORS
330
42
102
}
330
42
100
AcDbScale
 70
     0
300
1:8
140
1.0
141
8.0
290
     0
  0
SCALE
  5
48
102
{ACAD_REACTORS
330
42
102
}
330
42
100
AcDbScale
 70
     0
300
1:10
140
1.0
141
10.0
290
     0
  0
SCALE
  5
49
102
{ACAD_REACTORS
330
42
102
}
330
42
100
AcDbScale
 70
     0
300
1:16
140
1.0
141
16.0
290
     0
  0
SCALE
  5
4A
102
{ACAD_REACTORS
330
42
102
}
330
42
100
AcDbScale
 70
     0
300
1:20
140
1.0
141
20.0
290
     0
  0
SCALE
  5
4B
102
{ACAD_REACTORS
330
42
102
}
330
42
100
AcDbScale
 70
     0
300
1:30
140
1.0
141
30.0
290
     0
  0
SCALE
  5
4C
102
{ACAD_REACTORS
330
42
102
}
330
42
100
AcDbScale
 70
     0
300
1:40
140
1.0
141
40.0
290
     0
  0
SCALE
  5
4D
102
{ACAD_REACTORS
330
42
102
}
330
42
100
AcDbScale
 70
     0
300
1:50
140
1.0
141
50.0
290
     0
  0
SCALE
  5
4E
102
{ACAD_REACTORS
330
42
102
}
330
42
100
AcDbScale
 70
     0
300
1:100
140
1.0
141
100.0
290
     0
  0
SCALE
  5
4F
102
{ACAD_REACTORS
330
42
102
}
330
42
100
AcDbScale
 70
     0
300
2:1
140
2.0
141
1.0
290
     0
  0
SCALE
  5
50
102
{ACAD_REACTORS
330
42
102
}
330
42
100
AcDbScale
 70
     0
300
4:1
140
4.0
141
1.0
290
     0
  0
SCALE
  5
51
102
{ACAD_REACTORS
330
42
102
}
330
42
100
AcDbScale
 70
     0
300
8:1
140
8.0
141
1.0
290
     0
  0
SCALE
  5
52
102
{ACAD_REACTORS
330
42
102
}
330
42
100
AcDbScale
 70
     0
300
10:1
140
10.0
141
1.0
290
     0
  0
SCALE
  5
53
102
{ACAD_REACTORS
330
42
102
}
330
42
100
AcDbScale
 70
     0
300
100:1
140
100.0
141
1.0
290
     0
  0
TABLESTYLE
  5
65
102
{ACAD_XDICTIONARY
360
6C8
102
}
102
{ACAD_REACTORS
330
64
102
}
330
64
100
AcDbTableStyle
  3
Standard
 70
     0
 71
     0
 40
1.5
 41
1.5
280
     0
281
     0
  7
STANDARD
140
4.5
170
     2
 62
     0
 63
     7
283
     0
274
    -2
284
     1
 64
     0
275
    -2
285
     1
 65
     0
276
    -2
286
     1
 66
     0
277
    -2
287
     1
 67
     0
278
    -2
288
     1
 68
     0
279
    -2
289
     1
 69
     0
  7
STANDARD
140
6.0
170
     5
 62
     0
 63
     7
283
     0
274
    -2
284
     1
 64
     0
275
    -2
285
     1
 65
     0
276
    -2
286
     1
 66
     0
277
    -2
287
     1
 67
     0
278
    -2
288
     1
 68
     0
279
    -2
289
     1
 69
     0
  7
STANDARD
140
4.5
170
     5
 62
     0
 63
     7
283
     0
274
    -2
284
     1
 64
     0
275
    -2
285
     1
 65
     0
276
    -2
286
     1
 66
     0
277
    -2
287
     1
 67
     0
278
    -2
288
     1
 68
     0
279
    -2
289
     1
 69
     0
  0
VISUALSTYLE
  5
2F
102
{ACAD_XDICTIONARY
360
6DF
102
}
102
{ACAD_REACTORS
330
29
102
}
330
29
100
AcDbVisualStyle
  2
2dWireframe
 70
     4
 71
     0
 72
     2
 73
     0
 90
        0
 40
-0.6
 41
-30.0
 62
     5
 63
     7
421
 16777215
 74
     1
 91
        4
 64
     7
 65
   257
 75
     1
175
     1
 42
1.0
 92
        0
 66
   257
 43
1.0
 76
     1
 77
     6
 78
     2
 67
     7
 79
     5
170
     0
171
     0
290
     0
174
     0
 93
        1
 44
0.0
173
     0
291
     0
 45
0.0
1001
ACAD
1000
AcDbSavedByObjectVersion
1070
     0
  0
VISUALSTYLE
  5
FB
102
{ACAD_XDICTIONARY
360
70C
102
}
102
{ACAD_REACTORS
330
29
102
}
330
29
100
AcDbVisualStyle
  2
3dWireframe
 70
     5
 71
     0
 72
     2
 73
     0
 90
        0
 40
-0.6
 41
-30.0
 62
     5
 63
     7
421
 16777215
 74
     1
 91
        4
 64
     7
 65
   257
 75
     1
175
     1
 42
1.0
 92
        0
 66
   257
 43
1.0
 76
     1
 77
     6
 78
     2
 67
     7
 79
     5
170
     0
171
     0
290
     0
174
     0
 93
        1
 44
0.0
173
     0
291
     0
 45
0.0
1001
ACAD
1000
AcDbSavedByObjectVersion
1070
     0
  0
VISUALSTYLE
  5
2E
102
{ACAD_XDICTIONARY
360
6DD
102
}
102
{ACAD_REACTORS
330
29
102
}
330
29
100
AcDbVisualStyle
  2
Basic
 70
     7
 71
     1
 72
     0
 73
     1
 90
        0
 40
-0.6
 41
-30.0
 62
     5
 63
     7
421
 16777215
 74
     0
 91
        4
 64
     7
 65
   257
 75
     1
175
     1
 42
1.0
 92
        8
 66
     7
 43
1.0
 76
     1
 77
     6
 78
     2
 67
     7
 79
     5
170
     0
171
     0
290
     0
174
     0
 93
        1
 44
0.0
173
     0
291
     1
 45
0.0
1001
ACAD
1000
AcDbSavedByObjectVersion
1070
     0
  0
VISUALSTYLE
  5
35
102
{ACAD_XDICTIONARY
360
6EB
102
}
102
{ACAD_REACTORS
330
29
102
}
330
29
100
AcDbVisualStyle
  2
Brighten
 70
    12
 71
     2
 72
     2
 73
     0
 90
        0
 40
-0.6
 41
-30.0
 62
     5
 63
     7
421
 16777215
 74
     1
 91
        4
 64
     7
 65
   257
 75
     1
175
     1
 42
1.0
 92
        8
 66
     7
 43
1.0
 76
     1
 77
     6
 78
     2
 67
     7
 79
     5
170
     0
171
     0
290
     0
174
     0
 93
        1
 44
50.0
173
     0
291
     1
 45
0.0
1001
ACAD
1000
AcDbSavedByObjectVersion
1070
     0
  0
VISUALSTYLE
  5
39
102
{ACAD_XDICTIONARY
360
6F3
102
}
102
{ACAD_REACTORS
330
29
102
}
330
29
100
AcDbVisualStyle
  2
ColorChange
 70
    16
 71
     2
 72
     2
 73
     3
 90
        0
 40
-0.6
 41
-30.0
 62
     5
 63
     8
421
  8421504
 74
     1
 91
        4
 64
     7
 65
   257
 75
     1
175
     1
 42
1.0
 92
        8
 66
     8
424
  8421504
 43
1.0
 76
     1
 77
     6
 78
     2
 67
     7
 79
     5
170
     0
171
     0
290
     0
174
     0
 93
        1
 44
0.0
173
     0
291
     1
 45
0.0
1001
ACAD
1000
AcDbSavedByObjectVersion
1070
     0
  0
VISUALSTYLE
  5
32
102
{ACAD_XDICTIONARY
360
6E5
102
}
102
{ACAD_REACTORS
330
29
102
}
330
29
100
AcDbVisualStyle
  2
Conceptual
 70
     9
 71
     3
 72
     2
 73
     0
 90
        0
 40
-0.6
 41
-30.0
 62
     5
 63
     7
421
 16777215
 74
     2
 91
        2
 64
     7
 65
   257
 75
     1
175
     1
 42
179.0
 92
        8
 66
     7
 43
1.0
 76
     1
 77
     6
 78
     2
 67
     7
 79
     3
170
     0
171
     0
290
     0
174
     0
 93
        1
 44
0.0
173
     0
291
     0
 45
0.0
1001
ACAD
1000
AcDbSavedByObjectVersion
1070
     0
  0
VISUALSTYLE
  5
34
102
{ACAD_XDICTIONARY
360
6E9
102
}
102
{ACAD_REACTORS
330
29
102
}
330
29
100
AcDbVisualStyle
  2
Dim
 70
    11
 71
     2
 72
     2
 73
     0
 90
        0
 40
-0.6
 41
-30.0
 62
     5
 63
     7
421
 16777215
 74
     1
 91
        4
 64
     7
 65
   257
 75
     1
175
     1
 42
1.0
 92
        8
 66
     7
 43
1.0
 76
     1
 77
     6
 78
     2
 67
     7
 79
     5
170
     0
171
     0
290
     0
174
     0
 93
        1
 44
-50.0
173
     0
291
     1
 45
0.0
1001
ACAD
1000
AcDbSavedByObjectVersion
1070
     0
  0
VISUALSTYLE
  5
41
102
{ACAD_XDICTIONARY
360
703
102
}
102
{ACAD_REACTORS
330
29
102
}
330
29
100
AcDbVisualStyle
  2
EdgeColorOff
 70
    22
 71
     2
 72
     2
 73
     0
 90
        0
 40
-0.6
 41
-30.0
 62
     5
 63
     7
421
 16777215
 74
     1
 91
        4
 64
     7
 65
   257
 75
     1
175
     1
 42
1.0
 92
        8
 66
     7
 43
1.0
 76
     1
 77
     6
 78
     2
 67
     7
 79
     5
170
     0
171
     0
290
     0
174
     0
 93
        1
 44
0.0
173
     0
291
     1
 45
0.0
1001
ACAD
1000
AcDbSavedByObjectVersion
1070
     0
  0
VISUALSTYLE
  5
38
102
{ACAD_XDICTIONARY
360
6F1
102
}
102
{ACAD_REACTORS
330
29
102
}
330
29
100
AcDbVisualStyle
  2
Facepattern
 70
    15
 71
     2
 72
     2
 73
     0
 90
        0
 40
-0.6
 41
-30.0
 62
     5
 63
     7
421
 16777215
 74
     1
 91
        4
 64
     7
 65
   257
 75
     1
175
     1
 42
1.0
 92
        8
 66
     7
 43
1.0
 76
     1
 77
     6
 78
     2
 67
     7
 79
     5
170
     0
171
     0
290
     0
174
     0
 93
        1
 44
0.0
173
     0
291
     1
 45
0.0
1001
ACAD
1000
AcDbSavedByObjectVersion
1070
     0
  0
VISUALSTYLE
  5
2A
102
{ACAD_XDICTIONARY
360
6D5
102
}
102
{ACAD_REACTORS
330
29
102
}
330
29
100
AcDbVisualStyle
  2
Flat
 70
     0
 71
     2
 72
     1
 73
     1
 90
        2
 40
-0.6
 41
30.0
 62
     5
 63
     7
421
 16777215
 74
     0
 91
        0
 64
     7
 65
   257
 75
     1
175
     1
 42
1.0
 92
        8
 66
     7
 43
1.0
 76
     1
 77
     6
 78
     2
 67
     7
 79
     5
170
     0
171
     0
290
     0
174
     0
 93
       13
 44
0.0
173
     0
291
     1
 45
0.0
1001
ACAD
1000
AcDbSavedByObjectVersion
1070
     0
  0
VISUALSTYLE
  5
2B
102
{ACAD_XDICTIONARY
360
6D7
102
}
102
{ACAD_REACTORS
330
29
102
}
330
29
100
AcDbVisualStyle
  2
FlatWithEdges
 70
     1
 71
     2
 72
     1
 73
     1
 90
        2
 40
-0.6
 41
30.0
 62
     5
 63
     7
421
 16777215
 74
     1
 91
        0
 64
     7
 65
   257
 75
     1
175
     1
 42
1.0
 92
        0
 66
   257
 43
1.0
 76
     1
 77
     6
 78
     2
 67
     7
 79
     5
170
     0
171
     0
290
     0
174
     0
 93
       13
 44
0.0
173
     0
291
     1
 45
0.0
1001
ACAD
1000
AcDbSavedByObjectVersion
1070
     0
  0
VISUALSTYLE
  5
2C
102
{ACAD_XDICTIONARY
360
6D9
102
}
102
{ACAD_REACTORS
330
29
102
}
330
29
100
AcDbVisualStyle
  2
Gouraud
 70
     2
 71
     2
 72
     2
 73
     1
 90
        2
 40
-0.6
 41
30.0
 62
     5
 63
     7
421
 16777215
 74
     0
 91
        0
 64
     7
 65
   257
 75
     1
175
     1
 42
1.0
 92
        0
 66
     7
 43
1.0
 76
     1
 77
     6
 78
     2
 67
     7
 79
     5
170
     0
171
     0
290
     0
174
     0
 93
       13
 44
0.0
173
     0
291
     1
 45
0.0
1001
ACAD
1000
AcDbSavedByObjectVersion
1070
     0
  0
VISUALSTYLE
  5
2D
102
{ACAD_XDICTIONARY
360
6DB
102
}
102
{ACAD_REACTORS
330
29
102
}
330
29
100
AcDbVisualStyle
  2
GouraudWithEdges
 70
     3
 71
     2
 72
     2
 73
     1
 90
        2
 40
-0.6
 41
30.0
 62
     5
 63
     7
421
 16777215
 74
     1
 91
        0
 64
     7
 65
   257
 75
     1
175
     1
 42
1.0
 92
        0
 66
   257
 43
1.0
 76
     1
 77
     6
 78
     2
 67
     7
 79
     5
170
     0
171
     0
290
     0
174
     0
 93
       13
 44
0.0
173
     0
291
     1
 45
0.0
1001
ACAD
1000
AcDbSavedByObjectVersion
1070
     0
  0
VISUALSTYLE
  5
31
102
{ACAD_XDICTIONARY
360
6E3
102
}
102
{ACAD_REACTORS
330
29
102
}
330
29
100
AcDbVisualStyle
  2
Hidden
 70
     6
 71
     1
 72
     2
 73
     2
 90
        0
 40
-0.6
 41
-30.0
 62
     5
 63
     7
421
 16777215
 74
     2
 91
        2
 64
     7
 65
   257
 75
     2
175
     1
 42
40.0
 92
        0
 66
   257
 43
1.0
 76
     1
 77
     6
 78
     2
 67
     7
 79
     3
170
     0
171
     0
290
     0
174
     0
 93
        1
 44
0.0
173
     0
291
     0
 45
0.0
1001
ACAD
1000
AcDbSavedByObjectVersion
1070
     0
  0
VISUALSTYLE
  5
3F
102
{ACAD_XDICTIONARY
360
6FF
102
}
102
{ACAD_REACTORS
330
29
102
}
330
29
100
AcDbVisualStyle
  2
JitterOff
 70
    20
 71
     2
 72
     2
 73
     0
 90
        0
 40
-0.6
 41
-30.0
 62
     5
 63
     7
421
 16777215
 74
     1
 91
        4
 64
     7
 65
   257
 75
     1
175
     1
 42
1.0
 92
       10
 66
     7
 43
1.0
 76
     1
 77
     6
 78
     2
 67
     7
 79
     5
170
     0
171
     0
290
     0
174
     0
 93
        1
 44
0.0
173
     0
291
     1
 45
0.0
1001
ACAD
1000
AcDbSavedByObjectVersion
1070
     0
  0
VISUALSTYLE
  5
37
102
{ACAD_XDICTIONARY
360
6EF
102
}
102
{ACAD_REACTORS
330
29
102
}
330
29
100
AcDbVisualStyle
  2
Linepattern
 70
    14
 71
     2
 72
     2
 73
     0
 90
        0
 40
-0.6
 41
-30.0
 62
     5
 63
     7
421
 16777215
 74
     1
 91
        4
 64
     7
 65
   257
 75
     7
175
     7
 42
1.0
 92
        8
 66
     7
 43
1.0
 76
     1
 77
     6
 78
     2
 67
     7
 79
     5
170
     0
171
     0
290
     0
174
     0
 93
        1
 44
0.0
173
     0
291
     1
 45
0.0
1001
ACAD
1000
AcDbSavedByObjectVersion
1070
     0
  0
VISUALSTYLE
  5
40
102
{ACAD_XDICTIONARY
360
701
102
}
102
{ACAD_REACTORS
330
29
102
}
330
29
100
AcDbVisualStyle
  2
OverhangOff
 70
    21
 71
     2
 72
     2
 73
     0
 90
        0
 40
-0.6
 41
-30.0
 62
     5
 63
     7
421
 16777215
 74
     1
 91
        4
 64
     7
 65
   257
 75
     1
175
     1
 42
1.0
 92
        9
 66
     7
 43
1.0
 76
     1
 77
     6
 78
     2
 67
     7
 79
     5
170
     0
171
     0
290
     0
174
     0
 93
        1
 44
0.0
173
     0
291
     1
 45
0.0
1001
ACAD
1000
AcDbSavedByObjectVersion
1070
     0
  0
VISUALSTYLE
  5
33
102
{ACAD_XDICTIONARY
360
6E7
102
}
102
{ACAD_REACTORS
330
29
102
}
330
29
100
AcDbVisualStyle
  2
Realistic
 70
     8
 71
     2
 72
     3
 73
     0
 90
        2
 40
-0.6
 41
30.0
 62
     5
 63
     7
421
 16777215
 74
     0
 91
        0
 64
     7
 65
   257
 75
     1
175
     1
 42
1.0
 92
        8
 66
   257
 43
1.0
 76
     1
 77
     6
 78
     2
 67
     7
 79
     3
170
     0
171
     0
290
     0
174
     0
 93
       13
 44
0.0
173
     0
291
     0
 45
0.0
1001
ACAD
1000
AcDbSavedByObjectVersion
1070
     0
  0
VISUALSTYLE
  5
3E
102
{ACAD_XDICTIONARY
360
6FD
102
}
102
{ACAD_REACTORS
330
29
102
}
330
29
100
AcDbVisualStyle
  2
Shaded
 70
    27
 71
     2
 72
     2
 73
     1
 90
        2
 40
-0.6
 41
30.0
 62
     5
 63
     7
421
 16777215
 74
     0
 91
        4
 64
     7
 65
   257
 75
     1
175
     1
 42
1.0
 92
        8
 66
   257
 43
1.0
 76
     1
 77
     6
 78
     2
 67
     8
425
  7895160
 79
     3
170
     0
171
     0
290
     0
174
     0
 93
        5
 44
0.0
173
     0
291
     0
 45
0.0
1001
ACAD
1000
AcDbSavedByObjectVersion
1070
     0
  0
VISUALSTYLE
  5
3D
102
{ACAD_XDICTIONARY
360
6FB
102
}
102
{ACAD_REACTORS
330
29
102
}
330
29
100
AcDbVisualStyle
  2
Shaded with edges
 70
    26
 71
     2
 72
     2
 73
     1
 90
        2
 40
-0.6
 41
30.0
 62
     5
 63
     7
421
 16777215
 74
     1
 91
       10
 64
     7
 65
   257
 75
     2
175
     1
 42
1.0
 92
        8
 66
   257
 43
1.0
 76
     1
 77
     6
 78
     2
 67
     7
 79
     3
170
     0
171
     0
290
     0
174
     0
 93
        5
 44
0.0
173
     0
291
     0
 45
0.0
1001
ACAD
1000
AcDbSavedByObjectVersion
1070
     0
  0
VISUALSTYLE
  5
3A
102
{ACAD_XDICTIONARY
360
6F5
102
}
102
{ACAD_REACTORS
330
29
102
}
330
29
100
AcDbVisualStyle
  2
Shades of Gray
 70
    23
 71
     2
 72
     2
 73
     3
 90
        0
 40
-0.6
 41
-30.0
 62
     5
 63
     7
421
 16777215
 74
     2
 91
        2
 64
     7
 65
     7
 75
     1
175
     1
 42
40.0
 92
        8
 66
     7
 43
1.0
 76
     1
 77
     6
 78
     2
 67
     7
 79
     3
170
     0
171
     0
290
     0
174
     0
 93
        1
 44
0.0
173
     0
291
     0
 45
0.0
1001
ACAD
1000
AcDbSavedByObjectVersion
1070
     0
  0
VISUALSTYLE
  5
3B
102
{ACAD_XDICTIONARY
360
6F7
102
}
102
{ACAD_REACTORS
330
29
102
}
330
29
100
AcDbVisualStyle
  2
Sketchy
 70
    24
 71
     1
 72
     2
 73
     2
 90
        0
 40
-0.6
 41
-30.0
 62
     5
 63
     7
421
 16777215
 74
     2
 91
        2
 64
     7
 65
     7
 75
     1
175
     1
 42
40.0
 92
       11
 66
     7
 43
1.0
 76
     1
 77
     6
 78
     2
 67
     7
 79
     6
170
     0
171
     0
290
     0
174
     0
 93
        1
 44
0.0
173
     0
291
     0
 45
0.0
1001
ACAD
1000
AcDbSavedByObjectVersion
1070
     0
  0
VISUALSTYLE
  5
36
102
{ACAD_XDICTIONARY
360
6ED
102
}
102
{ACAD_REACTORS
330
29
102
}
330
29
100
AcDbVisualStyle
  2
Thicken
 70
    13
 71
     2
 72
     2
 73
     0
 90
        0
 40
-0.6
 41
-30.0
 62
     5
 63
     7
421
 16777215
 74
     1
 91
        4
 64
     7
 65
   257
 75
     1
175
     1
 42
1.0
 92
       12
 66
     7
 43
1.0
 76
     1
 77
     6
 78
     2
 67
     7
 79
     5
170
     0
171
     0
290
     0
174
     0
 93
        1
 44
0.0
173
     0
291
     1
 45
0.0
1001
ACAD
1000
AcDbSavedByObjectVersion
1070
     0
  0
VISUALSTYLE
  5
30
102
{ACAD_XDICTIONARY
360
6E1
102
}
102
{ACAD_REACTORS
330
29
102
}
330
29
100
AcDbVisualStyle
  2
Wireframe
 70
     5
 71
     0
 72
     2
 73
     0
 90
        0
 40
-0.6
 41
-30.0
 62
     5
 63
     7
421
 16777215
 74
     1
 91
        4
 64
     7
 65
   257
 75
     1
175
     1
 42
1.0
 92
        0
 66
   257
 43
1.0
 76
     1
 77
     6
 78
     2
 67
     7
 79
     3
170
     0
171
     0
290
     0
174
     0
 93
        1
 44
0.0
173
     0
291
     0
 45
0.0
1001
ACAD
1000
AcDbSavedByObjectVersion
1070
     0
  0
VISUALSTYLE
  5
3C
102
{ACAD_XDICTIONARY
360
6F9
102
}
102
{ACAD_REACTORS
330
29
102
}
330
29
100
AcDbVisualStyle
  2
X-Ray
 70
    25
 71
     2
 72
     2
 73
     1
 90
        1
 40
0.5
 41
-30.0
 62
     5
 63
     7
421
 16777215
 74
     1
 91
        0
 64
     7
 65
   257
 75
     1
175
     1
 42
1.0
 92
        8
 66
     7
 43
1.0
 76
     1
 77
     6
 78
     2
 67
     7
 79
     3
170
     0
171
     0
290
     0
174
     0
 93
       13
 44
0.0
173
     0
291
     0
 45
0.0
1001
ACAD
1000
AcDbSavedByObjectVersion
1070
     0
  0
DICTIONARYVAR
  5
6C3
102
{ACAD_REACTORS
330
6BF
102
}
330
6BF
100
DictionaryVariables
280
     0
  1
1:1
  0
DICTIONARYVAR
  5
6C1
102
{ACAD_REACTORS
330
6BF
102
}
330
6BF
100
DictionaryVariables
280
     0
  1
STANDARD
  0
DICTIONARYVAR
  5
6C0
102
{ACAD_REACTORS
330
6BF
102
}
330
6BF
100
DictionaryVariables
280
     0
  1
STANDARD
  0
DICTIONARYVAR
  5
6C5
102
{ACAD_REACTORS
330
6BF
102
}
330
6BF
100
DictionaryVariables
280
     0
  1
0
  0
DICTIONARYVAR
  5
6C6
102
{ACAD_REACTORS
330
6BF
102
}
330
6BF
100
DictionaryVariables
280
     0
  1
0
  0
DICTIONARYVAR
  5
6C4
102
{ACAD_REACTORS
330
6BF
102
}
330
6BF
100
DictionaryVariables
280
     0
  1
2
  0
DICTIONARYVAR
  5
6C2
102
{ACAD_REACTORS
330
6BF
102
}
330
6BF
100
DictionaryVariables
280
     0
  1
1
  0
DICTIONARYVAR
  5
6C7
102
{ACAD_REACTORS
330
6BF
102
}
330
6BF
100
DictionaryVariables
280
     0
  1
2
  0
DICTIONARY
  5
A6
102
{ACAD_REACTORS
330
A4
102
}
330
A4
100
AcDbDictionary
281
     1
  0
DICTIONARY
  5
1A
330
19
100
AcDbDictionary
280
     1
281
     1
  3
ACAD_XREC_ROUNDTRIP
360
6D3
  3
BUMPTILE
360
1C
  3
DIFFUSETILE
360
1B
  3
OPACITYTILE
360
1F
  3
REFLECTIONTILE
360
1E
  3
REFRACTIONTILE
360
20
  3
SPECULARTILE
360
1D
  0
DICTIONARY
  5
12
330
11
100
AcDbDictionary
280
     1
281
     1
  3
ACAD_XREC_ROUNDTRIP
360
6D2
  3
BUMPTILE
360
14
  3
DIFFUSETILE
360
13
  3
OPACITYTILE
360
17
  3
REFLECTIONTILE
360
16
  3
REFRACTIONTILE
360
18
  3
SPECULARTILE
360
15
  0
DICTIONARY
  5
22
330
21
100
AcDbDictionary
280
     1
281
     1
  3
ACAD_XREC_ROUNDTRIP
360
6D4
  3
BUMPTILE
360
24
  3
DIFFUSETILE
360
23
  3
OPACITYTILE
360
27
  3
REFLECTIONTILE
360
26
  3
REFRACTIONTILE
360
28
  3
SPECULARTILE
360
25
  0
DICTIONARY
  5
6CA
330
67
100
AcDbDictionary
280
     1
281
     1
  3
ACAD_XREC_ROUNDTRIP
360
6CB
  0
DICTIONARY
  5
6C8
330
65
100
AcDbDictionary
280
     1
281
     1
  3
ACAD_ROUNDTRIP_2008_TABLESTYLE_CELLSTYLEMAP
360
6C9
  3
ACAD_XREC_ROUNDTRIP
360
706
  0
DICTIONARY
  5
6DF
330
2F
100
AcDbDictionary
280
     1
281
     1
  3
ACAD_XREC_ROUNDTRIP
360
6E0
  0
DICTIONARY
  5
70C
330
FB
100
AcDbDictionary
280
     1
281
     1
  3
ACAD_XREC_ROUNDTRIP
360
70D
  0
DICTIONARY
  5
6DD
330
2E
100
AcDbDictionary
280
     1
281
     1
  3
ACAD_XREC_ROUNDTRIP
360
6DE
  0
DICTIONARY
  5
6EB
330
35
100
AcDbDictionary
280
     1
281
     1
  3
ACAD_XREC_ROUNDTRIP
360
6EC
  0
DICTIONARY
  5
6F3
330
39
100
AcDbDictionary
280
     1
281
     1
  3
ACAD_XREC_ROUNDTRIP
360
6F4
  0
DICTIONARY
  5
6E5
330
32
100
AcDbDictionary
280
     1
281
     1
  3
ACAD_XREC_ROUNDTRIP
360
6E6
  0
DICTIONARY
  5
6E9
330
34
100
AcDbDictionary
280
     1
281
     1
  3
ACAD_XREC_ROUNDTRIP
360
6EA
  0
DICTIONARY
  5
703
330
41
100
AcDbDictionary
280
     1
281
     1
  3
ACAD_XREC_ROUNDTRIP
360
704
  0
DICTIONARY
  5
6F1
330
38
100
AcDbDictionary
280
     1
281
     1
  3
ACAD_XREC_ROUNDTRIP
360
6F2
  0
DICTIONARY
  5
6D5
330
2A
100
AcDbDictionary
280
     1
281
     1
  3
ACAD_XREC_ROUNDTRIP
360
6D6
  0
DICTIONARY
  5
6D7
330
2B
100
AcDbDictionary
280
     1
281
     1
  3
ACAD_XREC_ROUNDTRIP
360
6D8
  0
DICTIONARY
  5
6D9
330
2C
100
AcDbDictionary
280
     1
281
     1
  3
ACAD_XREC_ROUNDTRIP
360
6DA
  0
DICTIONARY
  5
6DB
330
2D
100
AcDbDictionary
280
     1
281
     1
  3
ACAD_XREC_ROUNDTRIP
360
6DC
  0
DICTIONARY
  5
6E3
330
31
100
AcDbDictionary
280
     1
281
     1
  3
ACAD_XREC_ROUNDTRIP
360
6E4
  0
DICTIONARY
  5
6FF
330
3F
100
AcDbDictionary
280
     1
281
     1
  3
ACAD_XREC_ROUNDTRIP
360
700
  0
DICTIONARY
  5
6EF
330
37
100
AcDbDictionary
280
     1
281
     1
  3
ACAD_XREC_ROUNDTRIP
360
6F0
  0
DICTIONARY
  5
701
330
40
100
AcDbDictionary
280
     1
281
     1
  3
ACAD_XREC_ROUNDTRIP
360
702
  0
DICTIONARY
  5
6E7
330
33
100
AcDbDictionary
280
     1
281
     1
  3
ACAD_XREC_ROUNDTRIP
360
6E8
  0
DICTIONARY
  5
6FD
330
3E
100
AcDbDictionary
280
     1
281
     1
  3
ACAD_XREC_ROUNDTRIP
360
6FE
  0
DICTIONARY
  5
6FB
330
3D
100
AcDbDictionary
280
     1
281
     1
  3
ACAD_XREC_ROUNDTRIP
360
6FC
  0
DICTIONARY
  5
6F5
330
3A
100
AcDbDictionary
280
     1
281
     1
  3
ACAD_XREC_ROUNDTRIP
360
6F6
  0
DICTIONARY
  5
6F7
330
3B
100
AcDbDictionary
280
     1
281
     1
  3
ACAD_XREC_ROUNDTRIP
360
6F8
  0
DICTIONARY
  5
6ED
330
36
100
AcDbDictionary
280
     1
281
     1
  3
ACAD_XREC_ROUNDTRIP
360
6EE
  0
DICTIONARY
  5
6E1
330
30
100
AcDbDictionary
280
     1
281
     1
  3
ACAD_XREC_ROUNDTRIP
360
6E2
  0
DICTIONARY
  5
6F9
330
3C
100
AcDbDictionary
280
     1
281
     1
  3
ACAD_XREC_ROUNDTRIP
360
6FA
  0
XRECORD
  5
6D3
102
{ACAD_REACTORS
330
1A
102
}
330
1A
100
AcDbXrecord
280
     1
102
MATERIAL
148
0.0
149
0.0
149
0.0
 93
        0
 94
      127
282
     0
 72
     0
 77
     0
171
     0
175
     0
179
     0
273
     0
  0
XRECORD
  5
1C
102
{ACAD_REACTORS
330
1A
102
}
330
1A
100
AcDbXrecord
280
     1
270
     1
271
     1
  0
XRECORD
  5
1B
102
{ACAD_REACTORS
330
1A
102
}
330
1A
100
AcDbXrecord
280
     1
270
     1
271
     1
  0
XRECORD
  5
1F
102
{ACAD_REACTORS
330
1A
102
}
330
1A
100
AcDbXrecord
280
     1
270
     1
271
     1
  0
XRECORD
  5
1E
102
{ACAD_REACTORS
330
1A
102
}
330
1A
100
AcDbXrecord
280
     1
270
     1
271
     1
  0
XRECORD
  5
20
102
{ACAD_REACTORS
330
1A
102
}
330
1A
100
AcDbXrecord
280
     1
270
     1
271
     1
  0
XRECORD
  5
1D
102
{ACAD_REACTORS
330
1A
102
}
330
1A
100
AcDbXrecord
280
     1
270
     1
271
     1
  0
XRECORD
  5
6D2
102
{ACAD_REACTORS
330
12
102
}
330
12
100
AcDbXrecord
280
     1
102
MATERIAL
148
0.0
149
0.0
149
0.0
 93
        0
 94
      127
282
     0
 72
     0
 77
     0
171
     0
175
     0
179
     0
273
     0
  0
XRECORD
  5
14
102
{ACAD_REACTORS
330
12
102
}
330
12
100
AcDbXrecord
280
     1
270
     1
271
     1
  0
XRECORD
  5
13
102
{ACAD_REACTORS
330
12
102
}
330
12
100
AcDbXrecord
280
     1
270
     1
271
     1
  0
XRECORD
  5
17
102
{ACAD_REACTORS
330
12
102
}
330
12
100
AcDbXrecord
280
     1
270
     1
271
     1
  0
XRECORD
  5
16
102
{ACAD_REACTORS
330
12
102
}
330
12
100
AcDbXrecord
280
     1
270
     1
271
     1
  0
XRECORD
  5
18
102
{ACAD_REACTORS
330
12
102
}
330
12
100
AcDbXrecord
280
     1
270
     1
271
     1
  0
XRECORD
  5
15
102
{ACAD_REACTORS
330
12
102
}
330
12
100
AcDbXrecord
280
     1
270
     1
271
     1
  0
XRECORD
  5
6D4
102
{ACAD_REACTORS
330
22
102
}
330
22
100
AcDbXrecord
280
     1
102
MATERIAL
148
0.0
149
0.0
149
0.0
 93
        0
 94
      127
282
     0
 72
     0
 77
     0
171
     0
175
     0
179
     0
273
     0
  0
XRECORD
  5
24
102
{ACAD_REACTORS
330
22
102
}
330
22
100
AcDbXrecord
280
     1
270
     1
271
     1
  0
XRECORD
  5
23
102
{ACAD_REACTORS
330
22
102
}
330
22
100
AcDbXrecord
280
     1
270
     1
271
     1
  0
XRECORD
  5
27
102
{ACAD_REACTORS
330
22
102
}
330
22
100
AcDbXrecord
280
     1
270
     1
271
     1
  0
XRECORD
  5
26
102
{ACAD_REACTORS
330
22
102
}
330
22
100
AcDbXrecord
280
     1
270
     1
271
     1
  0
XRECORD
  5
28
102
{ACAD_REACTORS
330
22
102
}
330
22
100
AcDbXrecord
280
     1
270
     1
271
     1
  0
XRECORD
  5
25
102
{ACAD_REACTORS
330
22
102
}
330
22
100
AcDbXrecord
280
     1
270
     1
271
     1
  0
XRECORD
  5
6CB
102
{ACAD_REACTORS
330
6CA
102
}
330
6CA
100
AcDbXrecord
280
     1
102
ACAD_ROUNDTRIP_2012_MLEADER_STYLE
298
     1
  0
CELLSTYLEMAP
  5
6C9
102
{ACAD_REACTORS
330
6C8
102
}
330
6C8
100
AcDbCellStyleMap
 90
        3
300
CELLSTYLE
  1
TABLEFORMAT_BEGIN
 90
        5
170
     1
 91
        0
 92
    32768
 62
   257
 93
        1
300
CONTENTFORMAT
  1
CONTENTFORMAT_BEGIN
 90
        0
 91
        0
 92
      512
 93
        0
300

 40
0.0
140
1.0
 94
        5
 62
     0
340
55
144
6.0
309
CONTENTFORMAT_END
171
     1
301
MARGIN
  1
CELLMARGIN_BEGIN
 40
1.5
 40
1.5
 40
1.5
 40
1.5
 40
4.5
 40
4.5
309
CELLMARGIN_END
 94
        6
 95
        1
302
GRIDFORMAT
  1
GRIDFORMAT_BEGIN
 90
        0
 91
        1
 62
     0
 92
       -2
340
0
 93
        0
 40
1.125
309
GRIDFORMAT_END
 95
        2
302
GRIDFORMAT
  1
GRIDFORMAT_BEGIN
 90
        0
 91
        1
 62
     0
 92
       -2
340
0
 93
        0
 40
1.125
309
GRIDFORMAT_END
 95
        4
302
GRIDFORMAT
  1
GRIDFORMAT_BEGIN
 90
        0
 91
        1
 62
     0
 92
       -2
340
0
 93
        0
 40
1.125
309
GRIDFORMAT_END
 95
        8
302
GRIDFORMAT
  1
GRIDFORMAT_BEGIN
 90
        0
 91
        1
 62
     0
 92
       -2
340
0
 93
        0
 40
1.125
309
GRIDFORMAT_END
 95
       16
302
GRIDFORMAT
  1
GRIDFORMAT_BEGIN
 90
        0
 91
        1
 62
     0
 92
       -2
340
0
 93
        0
 40
1.125
309
GRIDFORMAT_END
 95
       32
302
GRIDFORMAT
  1
GRIDFORMAT_BEGIN
 90
        0
 91
        1
 62
     0
 92
       -2
340
0
 93
        0
 40
1.125
309
GRIDFORMAT_END
309
TABLEFORMAT_END
  1
CELLSTYLE_BEGIN
 90
        1
 91
        1
300
_TITLE
309
CELLSTYLE_END
300
CELLSTYLE
  1
TABLEFORMAT_BEGIN
 90
        5
170
     1
 91
        0
 92
        0
 62
   257
 93
        1
300
CONTENTFORMAT
  1
CONTENTFORMAT_BEGIN
 90
        0
 91
        0
 92
      512
 93
        0
300

 40
0.0
140
1.0
 94
        5
 62
     0
340
55
144
4.5
309
CONTENTFORMAT_END
171
     1
301
MARGIN
  1
CELLMARGIN_BEGIN
 40
1.5
 40
1.5
 40
1.5
 40
1.5
 40
4.5
 40
4.5
309
CELLMARGIN_END
 94
        6
 95
        1
302
GRIDFORMAT
  1
GRIDFORMAT_BEGIN
 90
        0
 91
        1
 62
     0
 92
       -2
340
0
 93
        0
 40
1.125
309
GRIDFORMAT_END
 95
        2
302
GRIDFORMAT
  1
GRIDFORMAT_BEGIN
 90
        0
 91
        1
 62
     0
 92
       -2
340
0
 93
        0
 40
1.125
309
GRIDFORMAT_END
 95
        4
302
GRIDFORMAT
  1
GRIDFORMAT_BEGIN
 90
        0
 91
        1
 62
     0
 92
       -2
340
0
 93
        0
 40
1.125
309
GRIDFORMAT_END
 95
        8
302
GRIDFORMAT
  1
GRIDFORMAT_BEGIN
 90
        0
 91
        1
 62
     0
 92
       -2
340
0
 93
        0
 40
1.125
309
GRIDFORMAT_END
 95
       16
302
GRIDFORMAT
  1
GRIDFORMAT_BEGIN
 90
        0
 91
        1
 62
     0
 92
       -2
340
0
 93
        0
 40
1.125
309
GRIDFORMAT_END
 95
       32
302
GRIDFORMAT
  1
GRIDFORMAT_BEGIN
 90
        0
 91
        1
 62
     0
 92
       -2
340
0
 93
        0
 40
1.125
309
GRIDFORMAT_END
309
TABLEFORMAT_END
  1
CELLSTYLE_BEGIN
 90
        2
 91
        1
300
_HEADER
309
CELLSTYLE_END
300
CELLSTYLE
  1
TABLEFORMAT_BEGIN
 90
        5
170
     1
 91
        0
 92
        0
 62
   257
 93
        1
300
CONTENTFORMAT
  1
CONTENTFORMAT_BEGIN
 90
        0
 91
        0
 92
      512
 93
        0
300

 40
0.0
140
1.0
 94
        2
 62
     0
340
55
144
4.5
309
CONTENTFORMAT_END
171
     1
301
MARGIN
  1
CELLMARGIN_BEGIN
 40
1.5
 40
1.5
 40
1.5
 40
1.5
 40
4.5
 40
4.5
309
CELLMARGIN_END
 94
        6
 95
        1
302
GRIDFORMAT
  1
GRIDFORMAT_BEGIN
 90
        0
 91
        1
 62
     0
 92
       -2
340
0
 93
        0
 40
1.125
309
GRIDFORMAT_END
 95
        2
302
GRIDFORMAT
  1
GRIDFORMAT_BEGIN
 90
        0
 91
        1
 62
     0
 92
       -2
340
0
 93
        0
 40
1.125
309
GRIDFORMAT_END
 95
        4
302
GRIDFORMAT
  1
GRIDFORMAT_BEGIN
 90
        0
 91
        1
 62
     0
 92
       -2
340
0
 93
        0
 40
1.125
309
GRIDFORMAT_END
 95
        8
302
GRIDFORMAT
  1
GRIDFORMAT_BEGIN
 90
        0
 91
        1
 62
     0
 92
       -2
340
0
 93
        0
 40
1.125
309
GRIDFORMAT_END
 95
       16
302
GRIDFORMAT
  1
GRIDFORMAT_BEGIN
 90
        0
 91
        1
 62
     0
 92
       -2
340
0
 93
        0
 40
1.125
309
GRIDFORMAT_END
 95
       32
302
GRIDFORMAT
  1
GRIDFORMAT_BEGIN
 90
        0
 91
        1
 62
     0
 92
       -2
340
0
 93
        0
 40
1.125
309
GRIDFORMAT_END
309
TABLEFORMAT_END
  1
CELLSTYLE_BEGIN
 90
        3
 91
        2
300
_DATA
309
CELLSTYLE_END
  0
XRECORD
  5
706
102
{ACAD_REACTORS
330
6C8
102
}
330
6C8
100
AcDbXrecord
280
     1
102
ACAD_ROUNDTRIP_PRE2007_TABLESTYLE
 90
      512
 91
        0
  1

 92
      512
 93
        0
  2

 94
      512
 95
        0
  3

  0
XRECORD
  5
6E0
102
{ACAD_REACTORS
330
6DF
102
}
330
6DF
100
AcDbXrecord
280
     1
102
RTVSPropertyOp0
 70
     1
102
RTVSPropertyOp1
 70
     1
102
RTVSPropertyOp2
 70
     1
102
RTVSPropertyOp3
 70
     1
102
RTVSPropertyOp4
 70
     1
102
RTVSPropertyOp5
 70
     1
102
RTVSPropertyOp6
 70
     1
102
RTVSPropertyOp7
 70
     1
102
RTVSPropertyOp8
 70
     1
102
RTVSPropertyOp9
 70
     1
102
RTVSPropertyOp10
 70
     1
102
RTVSPropertyOp11
 70
     1
102
RTVSPropertyOp12
 70
     1
102
RTVSPropertyOp13
 70
     1
102
RTVSPropertyOp14
 70
     1
102
RTVSPropertyOp15
 70
     1
102
RTVSPropertyOp16
 70
     1
102
RTVSPropertyOp17
 70
     1
102
RTVSPropertyOp18
 70
     1
102
RTVSPropertyOp19
 70
     1
102
RTVSPropertyOp20
 70
     1
102
RTVSPropertyOp21
 70
     1
102
RTVSPropertyOp22
 70
     1
102
RTVSPropertyOp23
 70
     1
102
RTVSPropertyOp24
 70
     1
102
RTVSPropertyOp25
 70
     1
102
RTVSPropertyOp26
 70
     1
102
RTVSPropertyOp27
 70
     1
102
RTVSPropertyOp28
 70
     1
102
RTVSPropertyOp29
 70
     1
102
RTVSPropertyOp30
 70
     1
102
RTVSPropertyOp31
 70
     1
102
RTVSPropertyOp32
 70
     1
  0
XRECORD
  5
70D
102
{ACAD_REACTORS
330
70C
102
}
330
70C
100
AcDbXrecord
280
     1
102
RTVSPropertyOp0
 70
     1
102
RTVSPropertyOp1
 70
     1
102
RTVSPropertyOp2
 70
     1
102
RTVSPropertyOp3
 70
     1
102
RTVSPropertyOp4
 70
     1
102
RTVSPropertyOp5
 70
     1
102
RTVSPropertyOp6
 70
     1
102
RTVSPropertyOp7
 70
     1
102
RTVSPropertyOp8
 70
     1
102
RTVSPropertyOp9
 70
     1
102
RTVSPropertyOp10
 70
     1
102
RTVSPropertyOp11
 70
     1
102
RTVSPropertyOp12
 70
     1
102
RTVSPropertyOp13
 70
     1
102
RTVSPropertyOp14
 70
     1
102
RTVSPropertyOp15
 70
     1
102
RTVSPropertyOp16
 70
     1
102
RTVSPropertyOp17
 70
     1
102
RTVSPropertyOp18
 70
     1
102
RTVSPropertyOp19
 70
     1
102
RTVSPropertyOp20
 70
     1
102
RTVSPropertyOp21
 70
     1
102
RTVSPropertyOp22
 70
     1
102
RTVSPropertyOp23
 70
     1
102
RTVSPropertyOp24
 70
     1
102
RTVSPropertyOp25
 70
     1
102
RTVSPropertyOp26
 70
     1
102
RTVSPropertyOp27
 70
     1
102
RTVSPropertyOp28
 70
     1
102
RTVSPropertyOp29
 70
     1
102
RTVSPropertyOp30
 70
     1
102
RTVSPropertyOp31
 70
     1
102
RTVSPropertyOp32
 70
     1
  0
XRECORD
  5
6DE
102
{ACAD_REACTORS
330
6DD
102
}
330
6DD
100
AcDbXrecord
280
     1
102
RTVSPropertyOp0
 70
     1
102
RTVSPropertyOp1
 70
     1
102
RTVSPropertyOp2
 70
     1
102
RTVSPropertyOp3
 70
     1
102
RTVSPropertyOp4
 70
     1
102
RTVSPropertyOp5
 70
     1
102
RTVSPropertyOp6
 70
     1
102
RTVSPropertyOp7
 70
     1
102
RTVSPropertyOp8
 70
     1
102
RTVSPropertyOp9
 70
     1
102
RTVSPropertyOp10
 70
     1
102
RTVSPropertyOp11
 70
     1
102
RTVSPropertyOp12
 70
     1
102
RTVSPropertyOp13
 70
     1
102
RTVSPropertyOp14
 70
     1
102
RTVSPropertyOp15
 70
     1
102
RTVSPropertyOp16
 70
     1
102
RTVSPropertyOp17
 70
     1
102
RTVSPropertyOp18
 70
     1
102
RTVSPropertyOp19
 70
     1
102
RTVSPropertyOp20
 70
     1
102
RTVSPropertyOp21
 70
     1
102
RTVSPropertyOp22
 70
     1
102
RTVSPropertyOp23
 70
     1
102
RTVSPropertyOp24
 70
     1
102
RTVSPropertyOp25
 70
     1
102
RTVSPropertyOp26
 70
     1
102
RTVSPropertyOp27
 70
     1
102
RTVSPropertyOp28
 70
     1
102
RTVSPropertyOp29
 70
     1
102
RTVSPropertyOp30
 70
     1
102
RTVSPropertyOp31
 70
     1
102
RTVSPropertyOp32
 70
     1
  0
XRECORD
  5
6EC
102
{ACAD_REACTORS
330
6EB
102
}
330
6EB
100
AcDbXrecord
280
     1
102
RTVSPropertyOp0
 70
     1
102
RTVSPropertyOp1
 70
     1
102
RTVSPropertyOp2
 70
     1
102
RTVSPropertyOp3
 70
     1
102
RTVSPropertyOp4
 70
     1
102
RTVSPropertyOp5
 70
     1
102
RTVSPropertyOp6
 70
     1
102
RTVSPropertyOp7
 70
     1
102
RTVSPropertyOp8
 70
     1
102
RTVSPropertyOp9
 70
     1
102
RTVSPropertyOp10
 70
     1
102
RTVSPropertyOp11
 70
     1
102
RTVSPropertyOp12
 70
     1
102
RTVSPropertyOp13
 70
     1
102
RTVSPropertyOp14
 70
     1
102
RTVSPropertyOp15
 70
     1
102
RTVSPropertyOp16
 70
     1
102
RTVSPropertyOp17
 70
     1
102
RTVSPropertyOp18
 70
     1
102
RTVSPropertyOp19
 70
     1
102
RTVSPropertyOp20
 70
     1
102
RTVSPropertyOp21
 70
     1
102
RTVSPropertyOp22
 70
     1
102
RTVSPropertyOp23
 70
     1
102
RTVSPropertyOp24
 70
     1
102
RTVSPropertyOp25
 70
     1
102
RTVSPropertyOp26
 70
     1
102
RTVSPropertyOp27
 70
     1
102
RTVSPropertyOp28
 70
     1
102
RTVSPropertyOp29
 70
     1
102
RTVSPropertyOp30
 70
     1
102
RTVSPropertyOp31
 70
     1
102
RTVSPropertyOp32
 70
     1
  0
XRECORD
  5
6F4
102
{ACAD_REACTORS
330
6F3
102
}
330
6F3
100
AcDbXrecord
280
     1
102
RTVSPropertyOp0
 70
     1
102
RTVSPropertyOp1
 70
     1
102
RTVSPropertyOp2
 70
     1
102
RTVSPropertyOp3
 70
     1
102
RTVSPropertyOp4
 70
     1
102
RTVSPropertyOp5
 70
     1
102
RTVSPropertyOp6
 70
     1
102
RTVSPropertyOp7
 70
     1
102
RTVSPropertyOp8
 70
     1
102
RTVSPropertyOp9
 70
     1
102
RTVSPropertyOp10
 70
     1
102
RTVSPropertyOp11
 70
     1
102
RTVSPropertyOp12
 70
     1
102
RTVSPropertyOp13
 70
     1
102
RTVSPropertyOp14
 70
     1
102
RTVSPropertyOp15
 70
     1
102
RTVSPropertyOp16
 70
     1
102
RTVSPropertyOp17
 70
     1
102
RTVSPropertyOp18
 70
     1
102
RTVSPropertyOp19
 70
     1
102
RTVSPropertyOp20
 70
     1
102
RTVSPropertyOp21
 70
     1
102
RTVSPropertyOp22
 70
     1
102
RTVSPropertyOp23
 70
     1
102
RTVSPropertyOp24
 70
     1
102
RTVSPropertyOp25
 70
     1
102
RTVSPropertyOp26
 70
     1
102
RTVSPropertyOp27
 70
     1
102
RTVSPropertyOp28
 70
     1
102
RTVSPropertyOp29
 70
     1
102
RTVSPropertyOp30
 70
     1
102
RTVSPropertyOp31
 70
     1
102
RTVSPropertyOp32
 70
     1
  0
XRECORD
  5
6E6
102
{ACAD_REACTORS
330
6E5
102
}
330
6E5
100
AcDbXrecord
280
     1
102
RTVSPropertyOp0
 70
     1
102
RTVSPropertyOp1
 70
     1
102
RTVSPropertyOp2
 70
     1
102
RTVSPropertyOp3
 70
     1
102
RTVSPropertyOp4
 70
     1
102
RTVSPropertyOp5
 70
     1
102
RTVSPropertyOp6
 70
     1
102
RTVSPropertyOp7
 70
     1
102
RTVSPropertyOp8
 70
     1
102
RTVSPropertyOp9
 70
     1
102
RTVSPropertyOp10
 70
     1
102
RTVSPropertyOp11
 70
     1
102
RTVSPropertyOp12
 70
     1
102
RTVSPropertyOp13
 70
     1
102
RTVSPropertyOp14
 70
     1
102
RTVSPropertyOp15
 70
     1
102
RTVSPropertyOp16
 70
     1
102
RTVSPropertyOp17
 70
     1
102
RTVSPropertyOp18
 70
     1
102
RTVSPropertyOp19
 70
     1
102
RTVSPropertyOp20
 70
     1
102
RTVSPropertyOp21
 70
     1
102
RTVSPropertyOp22
 70
     1
102
RTVSPropertyOp23
 70
     1
102
RTVSPropertyOp24
 70
     1
102
RTVSPropertyOp25
 70
     1
102
RTVSPropertyOp26
 70
     1
102
RTVSPropertyOp27
 70
     1
102
RTVSPropertyOp28
 70
     1
102
RTVSPropertyOp29
 70
     1
102
RTVSPropertyOp30
 70
     1
102
RTVSPropertyOp31
 70
     1
102
RTVSPropertyOp32
 70
     1
  0
XRECORD
  5
6EA
102
{ACAD_REACTORS
330
6E9
102
}
330
6E9
100
AcDbXrecord
280
     1
102
RTVSPropertyOp0
 70
     1
102
RTVSPropertyOp1
 70
     1
102
RTVSPropertyOp2
 70
     1
102
RTVSPropertyOp3
 70
     1
102
RTVSPropertyOp4
 70
     1
102
RTVSPropertyOp5
 70
     1
102
RTVSPropertyOp6
 70
     1
102
RTVSPropertyOp7
 70
     1
102
RTVSPropertyOp8
 70
     1
102
RTVSPropertyOp9
 70
     1
102
RTVSPropertyOp10
 70
     1
102
RTVSPropertyOp11
 70
     1
102
RTVSPropertyOp12
 70
     1
102
RTVSPropertyOp13
 70
     1
102
RTVSPropertyOp14
 70
     1
102
RTVSPropertyOp15
 70
     1
102
RTVSPropertyOp16
 70
     1
102
RTVSPropertyOp17
 70
     1
102
RTVSPropertyOp18
 70
     1
102
RTVSPropertyOp19
 70
     1
102
RTVSPropertyOp20
 70
     1
102
RTVSPropertyOp21
 70
     1
102
RTVSPropertyOp22
 70
     1
102
RTVSPropertyOp23
 70
     1
102
RTVSPropertyOp24
 70
     1
102
RTVSPropertyOp25
 70
     1
102
RTVSPropertyOp26
 70
     1
102
RTVSPropertyOp27
 70
     1
102
RTVSPropertyOp28
 70
     1
102
RTVSPropertyOp29
 70
     1
102
RTVSPropertyOp30
 70
     1
102
RTVSPropertyOp31
 70
     1
102
RTVSPropertyOp32
 70
     1
  0
XRECORD
  5
704
102
{ACAD_REACTORS
330
703
102
}
330
703
100
AcDbXrecord
280
     1
102
RTVSPropertyOp0
 70
     0
102
RTVSPropertyOp1
 70
     0
102
RTVSPropertyOp2
 70
     0
102
RTVSPropertyOp3
 70
     0
102
RTVSPropertyOp4
 70
     0
102
RTVSPropertyOp5
 70
     0
102
RTVSPropertyOp6
 70
     0
102
RTVSPropertyOp7
 70
     0
102
RTVSPropertyOp8
 70
     0
102
RTVSPropertyOp9
 70
     0
102
RTVSPropertyOp10
 70
     0
102
RTVSPropertyOp11
 70
     0
102
RTVSPropertyOp12
 70
     0
102
RTVSPropertyOp13
 70
     0
102
RTVSPropertyOp14
 70
     2
102
RTVSPropertyOp15
 70
     0
102
RTVSPropertyOp16
 70
     0
102
RTVSPropertyOp17
 70
     0
102
RTVSPropertyOp18
 70
     0
102
RTVSPropertyOp19
 70
     0
102
RTVSPropertyOp20
 70
     0
102
RTVSPropertyOp21
 70
     0
102
RTVSPropertyOp22
 70
     0
102
RTVSPropertyOp23
 70
     0
102
RTVSPropertyOp24
 70
     0
102
RTVSPropertyOp25
 70
     0
102
RTVSPropertyOp26
 70
     0
102
RTVSPropertyOp27
 70
     0
102
RTVSPropertyOp28
 70
     0
102
RTVSPropertyOp29
 70
     0
102
RTVSPropertyOp30
 70
     0
102
RTVSPropertyOp31
 70
     0
102
RTVSPropertyOp32
 70
     0
  0
XRECORD
  5
6F2
102
{ACAD_REACTORS
330
6F1
102
}
330
6F1
100
AcDbXrecord
280
     1
102
RTVSPropertyOp0
 70
     1
102
RTVSPropertyOp1
 70
     1
102
RTVSPropertyOp2
 70
     1
102
RTVSPropertyOp3
 70
     1
102
RTVSPropertyOp4
 70
     1
102
RTVSPropertyOp5
 70
     1
102
RTVSPropertyOp6
 70
     1
102
RTVSPropertyOp7
 70
     1
102
RTVSPropertyOp8
 70
     1
102
RTVSPropertyOp9
 70
     1
102
RTVSPropertyOp10
 70
     1
102
RTVSPropertyOp11
 70
     1
102
RTVSPropertyOp12
 70
     1
102
RTVSPropertyOp13
 70
     1
102
RTVSPropertyOp14
 70
     1
102
RTVSPropertyOp15
 70
     1
102
RTVSPropertyOp16
 70
     1
102
RTVSPropertyOp17
 70
     1
102
RTVSPropertyOp18
 70
     1
102
RTVSPropertyOp19
 70
     1
102
RTVSPropertyOp20
 70
     1
102
RTVSPropertyOp21
 70
     1
102
RTVSPropertyOp22
 70
     1
102
RTVSPropertyOp23
 70
     1
102
RTVSPropertyOp24
 70
     1
102
RTVSPropertyOp25
 70
     1
102
RTVSPropertyOp26
 70
     1
102
RTVSPropertyOp27
 70
     1
102
RTVSPropertyOp28
 70
     1
102
RTVSPropertyOp29
 70
     1
102
RTVSPropertyOp30
 70
     1
102
RTVSPropertyOp31
 70
     1
102
RTVSPropertyOp32
 70
     1
  0
XRECORD
  5
6D6
102
{ACAD_REACTORS
330
6D5
102
}
330
6D5
100
AcDbXrecord
280
     1
102
RTVSPropertyOp0
 70
     1
102
RTVSPropertyOp1
 70
     1
102
RTVSPropertyOp2
 70
     1
102
RTVSPropertyOp3
 70
     1
102
RTVSPropertyOp4
 70
     1
102
RTVSPropertyOp5
 70
     1
102
RTVSPropertyOp6
 70
     1
102
RTVSPropertyOp7
 70
     1
102
RTVSPropertyOp8
 70
     1
102
RTVSPropertyOp9
 70
     1
102
RTVSPropertyOp10
 70
     1
102
RTVSPropertyOp11
 70
     1
102
RTVSPropertyOp12
 70
     1
102
RTVSPropertyOp13
 70
     1
102
RTVSPropertyOp14
 70
     1
102
RTVSPropertyOp15
 70
     1
102
RTVSPropertyOp16
 70
     1
102
RTVSPropertyOp17
 70
     1
102
RTVSPropertyOp18
 70
     1
102
RTVSPropertyOp19
 70
     1
102
RTVSPropertyOp20
 70
     1
102
RTVSPropertyOp21
 70
     1
102
RTVSPropertyOp22
 70
     1
102
RTVSPropertyOp23
 70
     1
102
RTVSPropertyOp24
 70
     1
102
RTVSPropertyOp25
 70
     1
102
RTVSPropertyOp26
 70
     1
102
RTVSPropertyOp27
 70
     1
102
RTVSPropertyOp28
 70
     1
102
RTVSPropertyOp29
 70
     1
102
RTVSPropertyOp30
 70
     1
102
RTVSPropertyOp31
 70
     1
102
RTVSPropertyOp32
 70
     1
  0
XRECORD
  5
6D8
102
{ACAD_REACTORS
330
6D7
102
}
330
6D7
100
AcDbXrecord
280
     1
102
RTVSPropertyOp0
 70
     1
102
RTVSPropertyOp1
 70
     1
102
RTVSPropertyOp2
 70
     1
102
RTVSPropertyOp3
 70
     1
102
RTVSPropertyOp4
 70
     1
102
RTVSPropertyOp5
 70
     1
102
RTVSPropertyOp6
 70
     1
102
RTVSPropertyOp7
 70
     1
102
RTVSPropertyOp8
 70
     1
102
RTVSPropertyOp9
 70
     1
102
RTVSPropertyOp10
 70
     1
102
RTVSPropertyOp11
 70
     1
102
RTVSPropertyOp12
 70
     1
102
RTVSPropertyOp13
 70
     1
102
RTVSPropertyOp14
 70
     1
102
RTVSPropertyOp15
 70
     1
102
RTVSPropertyOp16
 70
     1
102
RTVSPropertyOp17
 70
     1
102
RTVSPropertyOp18
 70
     1
102
RTVSPropertyOp19
 70
     1
102
RTVSPropertyOp20
 70
     1
102
RTVSPropertyOp21
 70
     1
102
RTVSPropertyOp22
 70
     1
102
RTVSPropertyOp23
 70
     1
102
RTVSPropertyOp24
 70
     1
102
RTVSPropertyOp25
 70
     1
102
RTVSPropertyOp26
 70
     1
102
RTVSPropertyOp27
 70
     1
102
RTVSPropertyOp28
 70
     1
102
RTVSPropertyOp29
 70
     1
102
RTVSPropertyOp30
 70
     1
102
RTVSPropertyOp31
 70
     1
102
RTVSPropertyOp32
 70
     1
  0
XRECORD
  5
6DA
102
{ACAD_REACTORS
330
6D9
102
}
330
6D9
100
AcDbXrecord
280
     1
102
RTVSPropertyOp0
 70
     1
102
RTVSPropertyOp1
 70
     1
102
RTVSPropertyOp2
 70
     1
102
RTVSPropertyOp3
 70
     1
102
RTVSPropertyOp4
 70
     1
102
RTVSPropertyOp5
 70
     1
102
RTVSPropertyOp6
 70
     1
102
RTVSPropertyOp7
 70
     1
102
RTVSPropertyOp8
 70
     1
102
RTVSPropertyOp9
 70
     1
102
RTVSPropertyOp10
 70
     1
102
RTVSPropertyOp11
 70
     1
102
RTVSPropertyOp12
 70
     1
102
RTVSPropertyOp13
 70
     1
102
RTVSPropertyOp14
 70
     1
102
RTVSPropertyOp15
 70
     1
102
RTVSPropertyOp16
 70
     1
102
RTVSPropertyOp17
 70
     1
102
RTVSPropertyOp18
 70
     1
102
RTVSPropertyOp19
 70
     1
102
RTVSPropertyOp20
 70
     1
102
RTVSPropertyOp21
 70
     1
102
RTVSPropertyOp22
 70
     1
102
RTVSPropertyOp23
 70
     1
102
RTVSPropertyOp24
 70
     1
102
RTVSPropertyOp25
 70
     1
102
RTVSPropertyOp26
 70
     1
102
RTVSPropertyOp27
 70
     1
102
RTVSPropertyOp28
 70
     1
102
RTVSPropertyOp29
 70
     1
102
RTVSPropertyOp30
 70
     1
102
RTVSPropertyOp31
 70
     1
102
RTVSPropertyOp32
 70
     1
  0
XRECORD
  5
6DC
102
{ACAD_REACTORS
330
6DB
102
}
330
6DB
100
AcDbXrecord
280
     1
102
RTVSPropertyOp0
 70
     1
102
RTVSPropertyOp1
 70
     1
102
RTVSPropertyOp2
 70
     1
102
RTVSPropertyOp3
 70
     1
102
RTVSPropertyOp4
 70
     1
102
RTVSPropertyOp5
 70
     1
102
RTVSPropertyOp6
 70
     1
102
RTVSPropertyOp7
 70
     1
102
RTVSPropertyOp8
 70
     1
102
RTVSPropertyOp9
 70
     1
102
RTVSPropertyOp10
 70
     1
102
RTVSPropertyOp11
 70
     1
102
RTVSPropertyOp12
 70
     1
102
RTVSPropertyOp13
 70
     1
102
RTVSPropertyOp14
 70
     1
102
RTVSPropertyOp15
 70
     1
102
RTVSPropertyOp16
 70
     1
102
RTVSPropertyOp17
 70
     1
102
RTVSPropertyOp18
 70
     1
102
RTVSPropertyOp19
 70
     1
102
RTVSPropertyOp20
 70
     1
102
RTVSPropertyOp21
 70
     1
102
RTVSPropertyOp22
 70
     1
102
RTVSPropertyOp23
 70
     1
102
RTVSPropertyOp24
 70
     1
102
RTVSPropertyOp25
 70
     1
102
RTVSPropertyOp26
 70
     1
102
RTVSPropertyOp27
 70
     1
102
RTVSPropertyOp28
 70
     1
102
RTVSPropertyOp29
 70
     1
102
RTVSPropertyOp30
 70
     1
102
RTVSPropertyOp31
 70
     1
102
RTVSPropertyOp32
 70
     1
  0
XRECORD
  5
6E4
102
{ACAD_REACTORS
330
6E3
102
}
330
6E3
100
AcDbXrecord
280
     1
102
RTVSPropertyOp0
 70
     1
102
RTVSPropertyOp1
 70
     1
102
RTVSPropertyOp2
 70
     1
102
RTVSPropertyOp3
 70
     1
102
RTVSPropertyOp4
 70
     1
102
RTVSPropertyOp5
 70
     1
102
RTVSPropertyOp6
 70
     1
102
RTVSPropertyOp7
 70
     1
102
RTVSPropertyOp8
 70
     1
102
RTVSPropertyOp9
 70
     1
102
RTVSPropertyOp10
 70
     1
102
RTVSPropertyOp11
 70
     1
102
RTVSPropertyOp12
 70
     1
102
RTVSPropertyOp13
 70
     1
102
RTVSPropertyOp14
 70
     1
102
RTVSPropertyOp15
 70
     1
102
RTVSPropertyOp16
 70
     1
102
RTVSPropertyOp17
 70
     1
102
RTVSPropertyOp18
 70
     1
102
RTVSPropertyOp19
 70
     1
102
RTVSPropertyOp20
 70
     1
102
RTVSPropertyOp21
 70
     1
102
RTVSPropertyOp22
 70
     1
102
RTVSPropertyOp23
 70
     1
102
RTVSPropertyOp24
 70
     1
102
RTVSPropertyOp25
 70
     1
102
RTVSPropertyOp26
 70
     1
102
RTVSPropertyOp27
 70
     1
102
RTVSPropertyOp28
 70
     1
102
RTVSPropertyOp29
 70
     1
102
RTVSPropertyOp30
 70
     1
102
RTVSPropertyOp31
 70
     1
102
RTVSPropertyOp32
 70
     1
  0
XRECORD
  5
700
102
{ACAD_REACTORS
330
6FF
102
}
330
6FF
100
AcDbXrecord
280
     1
102
RTVSPropertyOp0
 70
     0
102
RTVSPropertyOp1
 70
     0
102
RTVSPropertyOp2
 70
     0
102
RTVSPropertyOp3
 70
     0
102
RTVSPropertyOp4
 70
     0
102
RTVSPropertyOp5
 70
     0
102
RTVSPropertyOp6
 70
     0
102
RTVSPropertyOp7
 70
     0
102
RTVSPropertyOp8
 70
     0
102
RTVSPropertyOp9
 70
     0
102
RTVSPropertyOp10
 70
     0
102
RTVSPropertyOp11
 70
     0
102
RTVSPropertyOp12
 70
     0
102
RTVSPropertyOp13
 70
     0
102
RTVSPropertyOp14
 70
     2
102
RTVSPropertyOp15
 70
     0
102
RTVSPropertyOp16
 70
     0
102
RTVSPropertyOp17
 70
     0
102
RTVSPropertyOp18
 70
     0
102
RTVSPropertyOp19
 70
     0
102
RTVSPropertyOp20
 70
     0
102
RTVSPropertyOp21
 70
     0
102
RTVSPropertyOp22
 70
     0
102
RTVSPropertyOp23
 70
     0
102
RTVSPropertyOp24
 70
     0
102
RTVSPropertyOp25
 70
     0
102
RTVSPropertyOp26
 70
     0
102
RTVSPropertyOp27
 70
     0
102
RTVSPropertyOp28
 70
     0
102
RTVSPropertyOp29
 70
     0
102
RTVSPropertyOp30
 70
     0
102
RTVSPropertyOp31
 70
     0
102
RTVSPropertyOp32
 70
     0
  0
XRECORD
  5
6F0
102
{ACAD_REACTORS
330
6EF
102
}
330
6EF
100
AcDbXrecord
280
     1
102
RTVSPropertyOp0
 70
     1
102
RTVSPropertyOp1
 70
     1
102
RTVSPropertyOp2
 70
     1
102
RTVSPropertyOp3
 70
     1
102
RTVSPropertyOp4
 70
     1
102
RTVSPropertyOp5
 70
     1
102
RTVSPropertyOp6
 70
     1
102
RTVSPropertyOp7
 70
     1
102
RTVSPropertyOp8
 70
     1
102
RTVSPropertyOp9
 70
     1
102
RTVSPropertyOp10
 70
     1
102
RTVSPropertyOp11
 70
     1
102
RTVSPropertyOp12
 70
     1
102
RTVSPropertyOp13
 70
     1
102
RTVSPropertyOp14
 70
     1
102
RTVSPropertyOp15
 70
     1
102
RTVSPropertyOp16
 70
     1
102
RTVSPropertyOp17
 70
     1
102
RTVSPropertyOp18
 70
     1
102
RTVSPropertyOp19
 70
     1
102
RTVSPropertyOp20
 70
     1
102
RTVSPropertyOp21
 70
     1
102
RTVSPropertyOp22
 70
     1
102
RTVSPropertyOp23
 70
     1
102
RTVSPropertyOp24
 70
     1
102
RTVSPropertyOp25
 70
     1
102
RTVSPropertyOp26
 70
     1
102
RTVSPropertyOp27
 70
     1
102
RTVSPropertyOp28
 70
     1
102
RTVSPropertyOp29
 70
     1
102
RTVSPropertyOp30
 70
     1
102
RTVSPropertyOp31
 70
     1
102
RTVSPropertyOp32
 70
     1
  0
XRECORD
  5
702
102
{ACAD_REACTORS
330
701
102
}
330
701
100
AcDbXrecord
280
     1
102
RTVSPropertyOp0
 70
     0
102
RTVSPropertyOp1
 70
     0
102
RTVSPropertyOp2
 70
     0
102
RTVSPropertyOp3
 70
     0
102
RTVSPropertyOp4
 70
     0
102
RTVSPropertyOp5
 70
     0
102
RTVSPropertyOp6
 70
     0
102
RTVSPropertyOp7
 70
     0
102
RTVSPropertyOp8
 70
     0
102
RTVSPropertyOp9
 70
     0
102
RTVSPropertyOp10
 70
     0
102
RTVSPropertyOp11
 70
     0
102
RTVSPropertyOp12
 70
     0
102
RTVSPropertyOp13
 70
     0
102
RTVSPropertyOp14
 70
     2
102
RTVSPropertyOp15
 70
     0
102
RTVSPropertyOp16
 70
     0
102
RTVSPropertyOp17
 70
     0
102
RTVSPropertyOp18
 70
     0
102
RTVSPropertyOp19
 70
     0
102
RTVSPropertyOp20
 70
     0
102
RTVSPropertyOp21
 70
     0
102
RTVSPropertyOp22
 70
     0
102
RTVSPropertyOp23
 70
     0
102
RTVSPropertyOp24
 70
     0
102
RTVSPropertyOp25
 70
     0
102
RTVSPropertyOp26
 70
     0
102
RTVSPropertyOp27
 70
     0
102
RTVSPropertyOp28
 70
     0
102
RTVSPropertyOp29
 70
     0
102
RTVSPropertyOp30
 70
     0
102
RTVSPropertyOp31
 70
     0
102
RTVSPropertyOp32
 70
     0
  0
XRECORD
  5
6E8
102
{ACAD_REACTORS
330
6E7
102
}
330
6E7
100
AcDbXrecord
280
     1
102
RTVSPropertyOp0
 70
     1
102
RTVSPropertyOp1
 70
     1
102
RTVSPropertyOp2
 70
     1
102
RTVSPropertyOp3
 70
     1
102
RTVSPropertyOp4
 70
     1
102
RTVSPropertyOp5
 70
     1
102
RTVSPropertyOp6
 70
     1
102
RTVSPropertyOp7
 70
     1
102
RTVSPropertyOp8
 70
     1
102
RTVSPropertyOp9
 70
     1
102
RTVSPropertyOp10
 70
     1
102
RTVSPropertyOp11
 70
     1
102
RTVSPropertyOp12
 70
     1
102
RTVSPropertyOp13
 70
     1
102
RTVSPropertyOp14
 70
     1
102
RTVSPropertyOp15
 70
     1
102
RTVSPropertyOp16
 70
     1
102
RTVSPropertyOp17
 70
     1
102
RTVSPropertyOp18
 70
     1
102
RTVSPropertyOp19
 70
     1
102
RTVSPropertyOp20
 70
     1
102
RTVSPropertyOp21
 70
     1
102
RTVSPropertyOp22
 70
     1
102
RTVSPropertyOp23
 70
     1
102
RTVSPropertyOp24
 70
     1
102
RTVSPropertyOp25
 70
     1
102
RTVSPropertyOp26
 70
     1
102
RTVSPropertyOp27
 70
     1
102
RTVSPropertyOp28
 70
     1
102
RTVSPropertyOp29
 70
     1
102
RTVSPropertyOp30
 70
     1
102
RTVSPropertyOp31
 70
     1
102
RTVSPropertyOp32
 70
     1
  0
XRECORD
  5
6FE
102
{ACAD_REACTORS
330
6FD
102
}
330
6FD
100
AcDbXrecord
280
     1
102
RTVSPropertyOp0
 70
     1
102
RTVSPropertyOp1
 70
     1
102
RTVSPropertyOp2
 70
     1
102
RTVSPropertyOp3
 70
     1
102
RTVSPropertyOp4
 70
     1
102
RTVSPropertyOp5
 70
     1
102
RTVSPropertyOp6
 70
     1
102
RTVSPropertyOp7
 70
     1
102
RTVSPropertyOp8
 70
     1
102
RTVSPropertyOp9
 70
     1
102
RTVSPropertyOp10
 70
     1
102
RTVSPropertyOp11
 70
     1
102
RTVSPropertyOp12
 70
     1
102
RTVSPropertyOp13
 70
     1
102
RTVSPropertyOp14
 70
     1
102
RTVSPropertyOp15
 70
     1
102
RTVSPropertyOp16
 70
     1
102
RTVSPropertyOp17
 70
     1
102
RTVSPropertyOp18
 70
     1
102
RTVSPropertyOp19
 70
     1
102
RTVSPropertyOp20
 70
     1
102
RTVSPropertyOp21
 70
     1
102
RTVSPropertyOp22
 70
     1
102
RTVSPropertyOp23
 70
     1
102
RTVSPropertyOp24
 70
     1
102
RTVSPropertyOp25
 70
     1
102
RTVSPropertyOp26
 70
     1
102
RTVSPropertyOp27
 70
     1
102
RTVSPropertyOp28
 70
     1
102
RTVSPropertyOp29
 70
     1
102
RTVSPropertyOp30
 70
     1
102
RTVSPropertyOp31
 70
     1
102
RTVSPropertyOp32
 70
     1
  0
XRECORD
  5
6FC
102
{ACAD_REACTORS
330
6FB
102
}
330
6FB
100
AcDbXrecord
280
     1
102
RTVSPropertyOp0
 70
     1
102
RTVSPropertyOp1
 70
     1
102
RTVSPropertyOp2
 70
     1
102
RTVSPropertyOp3
 70
     1
102
RTVSPropertyOp4
 70
     1
102
RTVSPropertyOp5
 70
     1
102
RTVSPropertyOp6
 70
     1
102
RTVSPropertyOp7
 70
     1
102
RTVSPropertyOp8
 70
     1
102
RTVSPropertyOp9
 70
     1
102
RTVSPropertyOp10
 70
     1
102
RTVSPropertyOp11
 70
     1
102
RTVSPropertyOp12
 70
     1
102
RTVSPropertyOp13
 70
     1
102
RTVSPropertyOp14
 70
     1
102
RTVSPropertyOp15
 70
     1
102
RTVSPropertyOp16
 70
     1
102
RTVSPropertyOp17
 70
     1
102
RTVSPropertyOp18
 70
     1
102
RTVSPropertyOp19
 70
     1
102
RTVSPropertyOp20
 70
     1
102
RTVSPropertyOp21
 70
     1
102
RTVSPropertyOp22
 70
     1
102
RTVSPropertyOp23
 70
     1
102
RTVSPropertyOp24
 70
     1
102
RTVSPropertyOp25
 70
     1
102
RTVSPropertyOp26
 70
     1
102
RTVSPropertyOp27
 70
     1
102
RTVSPropertyOp28
 70
     1
102
RTVSPropertyOp29
 70
     1
102
RTVSPropertyOp30
 70
     1
102
RTVSPropertyOp31
 70
     1
102
RTVSPropertyOp32
 70
     1
  0
XRECORD
  5
6F6
102
{ACAD_REACTORS
330
6F5
102
}
330
6F5
100
AcDbXrecord
280
     1
102
RTVSPropertyOp0
 70
     1
102
RTVSPropertyOp1
 70
     1
102
RTVSPropertyOp2
 70
     1
102
RTVSPropertyOp3
 70
     1
102
RTVSPropertyOp4
 70
     1
102
RTVSPropertyOp5
 70
     1
102
RTVSPropertyOp6
 70
     1
102
RTVSPropertyOp7
 70
     1
102
RTVSPropertyOp8
 70
     1
102
RTVSPropertyOp9
 70
     1
102
RTVSPropertyOp10
 70
     1
102
RTVSPropertyOp11
 70
     1
102
RTVSPropertyOp12
 70
     1
102
RTVSPropertyOp13
 70
     1
102
RTVSPropertyOp14
 70
     1
102
RTVSPropertyOp15
 70
     1
102
RTVSPropertyOp16
 70
     1
102
RTVSPropertyOp17
 70
     1
102
RTVSPropertyOp18
 70
     1
102
RTVSPropertyOp19
 70
     1
102
RTVSPropertyOp20
 70
     1
102
RTVSPropertyOp21
 70
     1
102
RTVSPropertyOp22
 70
     1
102
RTVSPropertyOp23
 70
     1
102
RTVSPropertyOp24
 70
     1
102
RTVSPropertyOp25
 70
     1
102
RTVSPropertyOp26
 70
     1
102
RTVSPropertyOp27
 70
     1
102
RTVSPropertyOp28
 70
     1
102
RTVSPropertyOp29
 70
     1
102
RTVSPropertyOp30
 70
     1
102
RTVSPropertyOp31
 70
     1
102
RTVSPropertyOp32
 70
     1
  0
XRECORD
  5
6F8
102
{ACAD_REACTORS
330
6F7
102
}
330
6F7
100
AcDbXrecord
280
     1
102
RTVSPropertyOp0
 70
     1
102
RTVSPropertyOp1
 70
     1
102
RTVSPropertyOp2
 70
     1
102
RTVSPropertyOp3
 70
     1
102
RTVSPropertyOp4
 70
     1
102
RTVSPropertyOp5
 70
     1
102
RTVSPropertyOp6
 70
     1
102
RTVSPropertyOp7
 70
     1
102
RTVSPropertyOp8
 70
     1
102
RTVSPropertyOp9
 70
     1
102
RTVSPropertyOp10
 70
     1
102
RTVSPropertyOp11
 70
     1
102
RTVSPropertyOp12
 70
     1
102
RTVSPropertyOp13
 70
     1
102
RTVSPropertyOp14
 70
     1
102
RTVSPropertyOp15
 70
     1
102
RTVSPropertyOp16
 70
     1
102
RTVSPropertyOp17
 70
     1
102
RTVSPropertyOp18
 70
     1
102
RTVSPropertyOp19
 70
     1
102
RTVSPropertyOp20
 70
     1
102
RTVSPropertyOp21
 70
     1
102
RTVSPropertyOp22
 70
     1
102
RTVSPropertyOp23
 70
     1
102
RTVSPropertyOp24
 70
     1
102
RTVSPropertyOp25
 70
     1
102
RTVSPropertyOp26
 70
     1
102
RTVSPropertyOp27
 70
     1
102
RTVSPropertyOp28
 70
     1
102
RTVSPropertyOp29
 70
     1
102
RTVSPropertyOp30
 70
     1
102
RTVSPropertyOp31
 70
     1
102
RTVSPropertyOp32
 70
     1
  0
XRECORD
  5
6EE
102
{ACAD_REACTORS
330
6ED
102
}
330
6ED
100
AcDbXrecord
280
     1
102
RTVSPropertyOp0
 70
     1
102
RTVSPropertyOp1
 70
     1
102
RTVSPropertyOp2
 70
     1
102
RTVSPropertyOp3
 70
     1
102
RTVSPropertyOp4
 70
     1
102
RTVSPropertyOp5
 70
     1
102
RTVSPropertyOp6
 70
     1
102
RTVSPropertyOp7
 70
     1
102
RTVSPropertyOp8
 70
     1
102
RTVSPropertyOp9
 70
     1
102
RTVSPropertyOp10
 70
     1
102
RTVSPropertyOp11
 70
     1
102
RTVSPropertyOp12
 70
     1
102
RTVSPropertyOp13
 70
     1
102
RTVSPropertyOp14
 70
     1
102
RTVSPropertyOp15
 70
     1
102
RTVSPropertyOp16
 70
     1
102
RTVSPropertyOp17
 70
     1
102
RTVSPropertyOp18
 70
     1
102
RTVSPropertyOp19
 70
     1
102
RTVSPropertyOp20
 70
     1
102
RTVSPropertyOp21
 70
     1
102
RTVSPropertyOp22
 70
     1
102
RTVSPropertyOp23
 70
     1
102
RTVSPropertyOp24
 70
     1
102
RTVSPropertyOp25
 70
     1
102
RTVSPropertyOp26
 70
     1
102
RTVSPropertyOp27
 70
     1
102
RTVSPropertyOp28
 70
     1
102
RTVSPropertyOp29
 70
     1
102
RTVSPropertyOp30
 70
     1
102
RTVSPropertyOp31
 70
     1
102
RTVSPropertyOp32
 70
     1
  0
XRECORD
  5
6E2
102
{ACAD_REACTORS
330
6E1
102
}
330
6E1
100
AcDbXrecord
280
     1
102
RTVSPropertyOp0
 70
     1
102
RTVSPropertyOp1
 70
     1
102
RTVSPropertyOp2
 70
     1
102
RTVSPropertyOp3
 70
     1
102
RTVSPropertyOp4
 70
     1
102
RTVSPropertyOp5
 70
     1
102
RTVSPropertyOp6
 70
     1
102
RTVSPropertyOp7
 70
     1
102
RTVSPropertyOp8
 70
     1
102
RTVSPropertyOp9
 70
     1
102
RTVSPropertyOp10
 70
     1
102
RTVSPropertyOp11
 70
     1
102
RTVSPropertyOp12
 70
     1
102
RTVSPropertyOp13
 70
     1
102
RTVSPropertyOp14
 70
     1
102
RTVSPropertyOp15
 70
     1
102
RTVSPropertyOp16
 70
     1
102
RTVSPropertyOp17
 70
     1
102
RTVSPropertyOp18
 70
     1
102
RTVSPropertyOp19
 70
     1
102
RTVSPropertyOp20
 70
     1
102
RTVSPropertyOp21
 70
     1
102
RTVSPropertyOp22
 70
     1
102
RTVSPropertyOp23
 70
     1
102
RTVSPropertyOp24
 70
     1
102
RTVSPropertyOp25
 70
     1
102
RTVSPropertyOp26
 70
     1
102
RTVSPropertyOp27
 70
     1
102
RTVSPropertyOp28
 70
     1
102
RTVSPropertyOp29
 70
     1
102
RTVSPropertyOp30
 70
     1
102
RTVSPropertyOp31
 70
     1
102
RTVSPropertyOp32
 70
     1
  0
XRECORD
  5
6FA
102
{ACAD_REACTORS
330
6F9
102
}
330
6F9
100
AcDbXrecord
280
     1
102
RTVSPropertyOp0
 70
     1
102
RTVSPropertyOp1
 70
     1
102
RTVSPropertyOp2
 70
     1
102
RTVSPropertyOp3
 70
     1
102
RTVSPropertyOp4
 70
     1
102
RTVSPropertyOp5
 70
     1
102
RTVSPropertyOp6
 70
     1
102
RTVSPropertyOp7
 70
     1
102
RTVSPropertyOp8
 70
     1
102
RTVSPropertyOp9
 70
     1
102
RTVSPropertyOp10
 70
     1
102
RTVSPropertyOp11
 70
     1
102
RTVSPropertyOp12
 70
     1
102
RTVSPropertyOp13
 70
     1
102
RTVSPropertyOp14
 70
     1
102
RTVSPropertyOp15
 70
     1
102
RTVSPropertyOp16
 70
     1
102
RTVSPropertyOp17
 70
     1
102
RTVSPropertyOp18
 70
     1
102
RTVSPropertyOp19
 70
     1
102
RTVSPropertyOp20
 70
     1
102
RTVSPropertyOp21
 70
     1
102
RTVSPropertyOp22
 70
     1
102
RTVSPropertyOp23
 70
     1
102
RTVSPropertyOp24
 70
     1
102
RTVSPropertyOp25
 70
     1
102
RTVSPropertyOp26
 70
     1
102
RTVSPropertyOp27
 70
     1
102
RTVSPropertyOp28
 70
     1
102
RTVSPropertyOp29
 70
     1
102
RTVSPropertyOp30
 70
     1
102
RTVSPropertyOp31
 70
     1
102
RTVSPropertyOp32
 70
     1
  0
ENDSEC
  0
EOF
