  0
SECTION
  2
HEADER
  9
$ACADVER
  1
AC1015
  9
$ACADMAINTVER
 70
    20
  9
$DWGCODEPAGE
  3
ANSI_932
  9
$INSBASE
 10
0.0
 20
0.0
 30
0.0
  9
$EXTMIN
 10
234.9728990530421
 20
-23700.00000000002
 30
0.0
  9
$EXTMAX
 10
23500.2285754295
 20
600.0000000000007
 30
0.0
  9
$LIMMIN
 10
0.0
 20
0.0
  9
$LIMMAX
 10
420.0
 20
297.0
  9
$ORTHOMODE
 70
     0
  9
$REGENMODE
 70
     1
  9
$FILLMODE
 70
     1
  9
$QTEXTMODE
 70
     0
  9
$MIRRTEXT
 70
     0
  9
$LTSCALE
 40
1.0
  9
$ATTMODE
 70
     1
  9
$TEXTSIZE
 40
2.5
  9
$TRACEWID
 40
1.0
  9
$TEXTSTYLE
  7
STANDARD
  9
$CLAYER
  8
0
  9
$CELTYPE
  6
ByLayer
  9
$CECOLOR
 62
   256
  9
$CELTSCALE
 40
1.0
  9
$DISPSILH
 70
     0
  9
$DIMSCALE
 40
1.0
  9
$DIMASZ
 40
3.5
  9
$DIMEXO
 40
1.0
  9
$DIMDLI
 40
10.0
  9
$DIMRND
 40
0.0
  9
$DIMDLE
 40
0.0
  9
$DIMEXE
 40
1.0
  9
$DIMTP
 40
0.1
  9
$DIMTM
 40
0.1
  9
$DIMTXT
 40
3.5
  9
$DIMCEN
 40
0.0
  9
$DIMTSZ
 40
0.0
  9
$DIMTOL
 70
     0
  9
$DIMLIM
 70
     0
  9
$DIMTIH
 70
     0
  9
$DIMTOH
 70
     0
  9
$DIMSE1
 70
     0
  9
$DIMSE2
 70
     0
  9
$DIMTAD
 70
     1
  9
$DIMZIN
 70
     8
  9
$DIMBLK
  1

  9
$DIMASO
 70
     1
  9
$DIMSHO
 70
     1
  9
$DIMPOST
  1

  9
$DIMAPOST
  1
"
  9
$DIMALT
 70
     0
  9
$DIMALTD
 70
     2
  9
$DIMALTF
 40
0.0393701
  9
$DIMLFAC
 40
1.0
  9
$DIMTOFL
 70
     1
  9
$DIMTVP
 40
0.0
  9
$DIMTIX
 70
     0
  9
$DIMSOXD
 70
     0
  9
$DIMSAH
 70
     0
  9
$DIMBLK1
  1

  9
$DIMBLK2
  1

  9
$DIMSTYLE
  2
AM_ISO
  9
$DIMCLRD
 70
   256
  9
$DIMCLRE
 70
   256
  9
$DIMCLRT
 70
     2
  9
$DIMTFAC
 40
0.71
  9
$DIMGAP
 40
1.5
  9
$DIMJUST
 70
     0
  9
$DIMSD1
 70
     0
  9
$DIMSD2
 70
     0
  9
$DIMTOLJ
 70
     0
  9
$DIMTZIN
 70
     8
  9
$DIMALTZ
 70
     0
  9
$DIMALTTZ
 70
     0
  9
$DIMUPT
 70
     0
  9
$DIMDEC
 70
     2
  9
$DIMTDEC
 70
     3
  9
$DIMALTU
 70
     2
  9
$DIMALTTD
 70
     4
  9
$DIMTXSTY
  7
STANDARD
  9
$DIMAUNIT
 70
     0
  9
$DIMADEC
 70
     0
  9
$DIMALTRND
 40
0.0
  9
$DIMAZIN
 70
     2
  9
$DIMDSEP
 70
    46
  9
$DIMATFIT
 70
     3
  9
$DIMFRAC
 70
     0
  9
$DIMLDRBLK
  1

  9
$DIMLUNIT
 70
     2
  9
$DIMLWD
 70
    -1
  9
$DIMLWE
 70
    -1
  9
$DIMTMOVE
 70
     0
  9
$LUNITS
 70
     2
  9
$LUPREC
 70
     2
  9
$SKETCHINC
 40
1.0
  9
$FILLETRAD
 40
2.5
  9
$AUNITS
 70
     0
  9
$AUPREC
 70
     0
  9
$MENU
  1
.
  9
$ELEVATION
 40
0.0
  9
$PELEVATION
 40
0.0
  9
$THICKNESS
 40
0.0
  9
$LIMCHECK
 70
     0
  9
$CHAMFERA
 40
2.5
  9
$CHAMFERB
 40
2.5
  9
$CHAMFERC
 40
0.0
  9
$CHAMFERD
 40
0.0
  9
$SKPOLY
 70
     0
  9
$TDCREATE
 40
2456115.556929526
  9
$TDUCREATE
 40
2456115.181929526
  9
$TDUPDATE
 40
2456189.481749039
  9
$TDUUPDATE
 40
2456189.106749040
  9
$TDINDWG
 40
0.0076273148
  9
$TDUSRTIMER
 40
0.0076273148
  9
$USRTIMER
 70
     1
  9
$ANGBASE
 50
0.0
  9
$ANGDIR
 70
     0
  9
$PDMODE
 70
     0
  9
$PDSIZE
 40
0.0
  9
$PLINEWID
 40
0.0
  9
$SPLFRAME
 70
     0
  9
$SPLINETYPE
 70
     6
  9
$SPLINESEGS
 70
     8
  9
$HANDSEED
  5
9AC
  9
$SURFTAB1
 70
     6
  9
$SURFTAB2
 70
     6
  9
$SURFTYPE
 70
     6
  9
$SURFU
 70
     6
  9
$SURFV
 70
     6
  9
$UCSBASE
  2

  9
$UCSNAME
  2

  9
$UCSORG
 10
0.0
 20
0.0
 30
0.0
  9
$UCSXDIR
 10
1.0
 20
0.0
 30
0.0
  9
$UCSYDIR
 10
0.0
 20
1.0
 30
0.0
  9
$UCSORTHOREF
  2

  9
$UCSORTHOVIEW
 70
     0
  9
$UCSORGTOP
 10
0.0
 20
0.0
 30
0.0
  9
$UCSORGBOTTOM
 10
0.0
 20
0.0
 30
0.0
  9
$UCSORGLEFT
 10
0.0
 20
0.0
 30
0.0
  9
$UCSORGRIGHT
 10
0.0
 20
0.0
 30
0.0
  9
$UCSORGFRONT
 10
0.0
 20
0.0
 30
0.0
  9
$UCSORGBACK
 10
0.0
 20
0.0
 30
0.0
  9
$PUCSBASE
  2

  9
$PUCSNAME
  2

  9
$PUCSORG
 10
0.0
 20
0.0
 30
0.0
  9
$PUCSXDIR
 10
1.0
 20
0.0
 30
0.0
  9
$PUCSYDIR
 10
0.0
 20
1.0
 30
0.0
  9
$PUCSORTHOREF
  2

  9
$PUCSORTHOVIEW
 70
     0
  9
$PUCSORGTOP
 10
0.0
 20
0.0
 30
0.0
  9
$PUCSORGBOTTOM
 10
0.0
 20
0.0
 30
0.0
  9
$PUCSORGLEFT
 10
0.0
 20
0.0
 30
0.0
  9
$PUCSORGRIGHT
 10
0.0
 20
0.0
 30
0.0
  9
$PUCSORGFRONT
 10
0.0
 20
0.0
 30
0.0
  9
$PUCSORGBACK
 10
0.0
 20
0.0
 30
0.0
  9
$USERI1
 70
     0
  9
$USERI2
 70
     0
  9
$USERI3
 70
     0
  9
$USERI4
 70
     0
  9
$USERI5
 70
     0
  9
$USERR1
 40
0.0
  9
$USERR2
 40
0.0
  9
$USERR3
 40
0.0
  9
$USERR4
 40
0.0
  9
$USERR5
 40
0.0
  9
$WORLDVIEW
 70
     1
  9
$SHADEDGE
 70
     3
  9
$SHADEDIF
 70
    70
  9
$TILEMODE
 70
     1
  9
$MAXACTVP
 70
    64
  9
$PINSBASE
 10
0.0
 20
0.0
 30
0.0
  9
$PLIMCHECK
 70
     0
  9
$PEXTMIN
 10
1.000000000000000E+20
 20
1.000000000000000E+20
 30
1.000000000000000E+20
  9
$PEXTMAX
 10
-1.000000000000000E+20
 20
-1.000000000000000E+20
 30
-1.000000000000000E+20
  9
$PLIMMIN
 10
0.0
 20
0.0
  9
$PLIMMAX
 10
420.0
 20
297.0
  9
$UNITMODE
 70
     0
  9
$VISRETAIN
 70
     1
  9
$PLINEGEN
 70
     0
  9
$PSLTSCALE
 70
     1
  9
$TREEDEPTH
 70
  3020
  9
$CMLSTYLE
  2
Standard
  9
$CMLJUST
 70
     0
  9
$CMLSCALE
 40
20.0
  9
$PROXYGRAPHICS
 70
     1
  9
$MEASUREMENT
 70
     1
  9
$CELWEIGHT
370
    -1
  9
$ENDCAPS
280
     0
  9
$JOINSTYLE
280
     0
  9
$LWDISPLAY
290
     0
  9
$INSUNITS
 70
     4
  9
$HYPERLINKBASE
  1

  9
$STYLESHEET
  1

  9
$XEDIT
290
     1
  9
$CEPSNTYPE
380
     0
  9
$PSTYLEMODE
290
     1
  9
$FINGERPRINTGUID
  2
{62125DA7-4032-4B65-BD40-34B5063D7B39}
  9
$VERSIONGUID
  2
{25EC06E4-25BD-4905-B3C7-1FA74D03C32A}
  9
$EXTNAMES
290
     1
  9
$PSVPSCALE
 40
0.0
  9
$OLESTARTUP
290
     0
  0
ENDSEC
  0
SECTION
  2
CLASSES
  0
CLASS
  1
ACDBDICTIONARYWDFLT
  2
AcDbDictionaryWithDefault
  3
ObjectDBX Classes
 90
        0
280
     0
281
     0
  0
CLASS
  1
MATERIAL
  2
AcDbMaterial
  3
ObjectDBX Classes
 90
     1153
280
     0
281
     0
  0
CLASS
  1
VISUALSTYLE
  2
AcDbVisualStyle
  3
ObjectDBX Classes
 90
     4095
280
     0
281
     0
  0
CLASS
  1
SCALE
  2
AcDbScale
  3
ObjectDBX Classes
 90
     1153
280
     0
281
     0
  0
CLASS
  1
TABLESTYLE
  2
AcDbTableStyle
  3
ObjectDBX Classes
 90
     4095
280
     0
281
     0
  0
CLASS
  1
MLEADERSTYLE
  2
AcDbMLeaderStyle
  3
ACDB_MLEADERSTYLE_CLASS
 90
     4095
280
     0
281
     0
  0
CLASS
  1
AMGSETTINGSOBJ
  2
AmgSettingsObj
  3
"AcadM|Product Description: AutoCAD Mechanical|Company: Autodesk, Inc."
 90
     1024
280
     0
281
     0
  0
CLASS
  1
ACME_DOCUMENT
  2
AcMeDbDoc
  3
AcMeServices
 90
     1024
280
     0
281
     0
  0
CLASS
  1
ACMESCOPE
  2
AcMeScope
  3
AcMeServices
 90
     1024
280
     0
281
     0
  0
CLASS
  1
ACMECOMMANDHISTORY
  2
AcMeCommandHistory
  3
AcMeServices
 90
     1024
280
     0
281
     0
  0
CLASS
  1
ACIMSYSVARMAN
  2
AcImSysVarManager
  3
AcMeServices
 90
     1024
280
     0
281
     0
  0
CLASS
  1
ACIMINTSYSVAR
  2
AcImIntSysVar
  3
AcMeServices
 90
     1024
280
     0
281
     0
  0
CLASS
  1
ACMESTATEMGR
  2
AcMeStateMgr
  3
AcMeServices
 90
     1024
280
     0
281
     0
  0
CLASS
  1
ACDBENTITYCACHE
  2
AcMeEntityCache
  3
AcMeServices
 90
     1024
280
     0
281
     0
  0
CLASS
  1
ACGREFMASTER
  2
AcGrefMaster
  3
AcAttribServices
 90
     1024
280
     0
281
     0
  0
CLASS
  1
ACME_DATABASE
  2
AcMeDbDatabase
  3
AcMeServices
 90
     1024
280
     0
281
     0
  0
CLASS
  1
ACRFINSADJUSTERMGR
  2
AcRfInsAdjusterMgr
  3
AcMeServices
 90
     1024
280
     0
281
     0
  0
CLASS
  1
ACGREFACADMASTER
  2
AcGrefacadMaster
  3
AcGrefServices
 90
     1024
280
     0
281
     0
  0
CLASS
  1
AMDTMENUSTATEMGR
  2
AmdtMenuStateMgr
  3
McadcomServices
 90
     1024
280
     0
281
     0
  0
CLASS
  1
AMDTMCOMMENUSTATE
  2
AmdtMcomMenuState
  3
McadcomServices
 90
     1024
280
     0
281
     0
  0
CLASS
  1
AMIMASTER
  2
AmiMaster
  3
AmiServices
 90
     1024
280
     0
281
     0
  0
CLASS
  1
MAPIAMMOUDLE
  2
MApiAmModule
  3
MApiAmServices
 90
     1024
280
     0
281
     0
  0
CLASS
  1
ACIMSTRSYSVAR
  2
AcImStrSysVar
  3
AcMeServices
 90
     1024
280
     0
281
     0
  0
CLASS
  1
AMDTAMMENUSTATE
  2
AmdtAmMenuState
  3
DesignerAssemblies
 90
     1024
280
     0
281
     0
  0
CLASS
  1
ACAMPROJECT
  2
AcAmProject
  3
DesignerAssemblies
 90
     1024
280
     0
281
     0
  0
CLASS
  1
ACAMGRCOMPDEF
  2
AcAmGrCompDef
  3
DesignerAssemblies
 90
     1024
280
     0
281
     0
  0
CLASS
  1
ACAMCOMPDEF
  2
AcAmCompDef
  3
DesignerAssemblies
 90
     1024
280
     0
281
     0
  0
CLASS
  1
ACAMCOMPDEFMGR
  2
AcAmCompDefMgr
  3
DesignerAssemblies
 90
     1024
280
     0
281
     0
  0
CLASS
  1
AMCONTEXTMGR
  2
AcAmContextMgr
  3
DesignerAssemblies
 90
     1024
280
     0
281
     0
  0
CLASS
  1
ACAMCONTEXTMODELER
  2
AcAmContextModeler
  3
DesignerAssemblies
 90
     1024
280
     0
281
     0
  0
CLASS
  1
ACMDATADICTIONARY
  2
AcmDataDictionary
  3
"AcmSymBB|Product Description: AutoCAD Mechanical|Company: Autodesk, Inc."
 90
     1024
280
     0
281
     0
  0
CLASS
  1
ACMSTANDARDISO
  2
AcmStandardISO
  3
"Amdt_StdImp|Product Description: AutoCAD Mechanical|Company: Autodesk, Inc."
 90
     1024
280
     0
281
     0
  0
CLASS
  1
AMDTEDGESTANDARDISO13715
  2
AmdtEdgeStdISO13715
  3
"Amdt_StdImp|Product Description: AutoCAD Mechanical|Company: Autodesk, Inc."
 90
     1024
280
     0
281
     0
  0
CLASS
  1
ACMSURFSTANDARDISO2002
  2
AcmSurfTextStdISO2002
  3
"Amdt_StdImp|Product Description: AutoCAD Mechanical|Company: Autodesk, Inc."
 90
     1024
280
     0
281
     0
  0
CLASS
  1
ACMFCFSTANDARDISO2004
  2
AcmFCFStdISO2004
  3
"Amdt_StdImp|Product Description: AutoCAD Mechanical|Company: Autodesk, Inc."
 90
     1024
280
     0
281
     0
  0
CLASS
  1
ACMWELDSTANDARDISO
  2
AcmWeldingStdISO
  3
"Amdt_StdImp|Product Description: AutoCAD Mechanical|Company: Autodesk, Inc."
 90
     1024
280
     0
281
     0
  0
CLASS
  1
ACMIDSTANDARDISO2004
  2
AcmIdStdISO2004
  3
"Amdt_StdImp|Product Description: AutoCAD Mechanical|Company: Autodesk, Inc."
 90
     1024
280
     0
281
     0
  0
CLASS
  1
ACMDATUMSTANDARDISO
  2
AcmDatumStdISO
  3
"Amdt_StdImp|Product Description: AutoCAD Mechanical|Company: Autodesk, Inc."
 90
     1024
280
     0
281
     0
  0
CLASS
  1
ACMBOMSTANDARDISO
  2
AcmBOMStdISO
  3
"Amdt_StdImp|Product Description: AutoCAD Mechanical|Company: Autodesk, Inc."
 90
     1024
280
     0
281
     0
  0
CLASS
  1
ACMDETAILSTANDARDISO
  2
AmdtDetailSymStdISO
  3
"Amdt_StdImp|Product Description: AutoCAD Mechanical|Company: Autodesk, Inc."
 90
     1024
280
     0
281
     0
  0
CLASS
  1
ACMSECTIONSTANDARDISO2001
  2
AmdtSectionSymStdISO2001
  3
"Amdt_StdImp|Product Description: AutoCAD Mechanical|Company: Autodesk, Inc."
 90
     1024
280
     0
281
     0
  0
CLASS
  1
ACMCENTERLINESTANDARDISO
  2
AmdtCenterLineStdISO
  3
"Amdt_StdImp|Product Description: AutoCAD Mechanical|Company: Autodesk, Inc."
 90
     1024
280
     0
281
     0
  0
CLASS
  1
ACMTHREADLINESTANDARDISO
  2
AmdtThreadLineStdISO
  3
"Amdt_StdImp|Product Description: AutoCAD Mechanical|Company: Autodesk, Inc."
 90
     1024
280
     0
281
     0
  0
CLASS
  1
ACMNOTESTANDARDISO
  2
AmdtNoteStdISO
  3
"Amdt_StdImp|Product Description: AutoCAD Mechanical|Company: Autodesk, Inc."
 90
     1024
280
     0
281
     0
  0
CLASS
  1
ACMTAPERSTANDARDISO
  2
AcmTaperStdISO
  3
"Amdt_StdImp|Product Description: AutoCAD Mechanical|Company: Autodesk, Inc."
 90
     1024
280
     0
281
     0
  0
CLASS
  1
ACMANOOTATIONVIEWSTANDARDISO
  2
AmdtAnViewStdISO
  3
"Amdt_StdImp|Product Description: AutoCAD Mechanical|Company: Autodesk, Inc."
 90
     1024
280
     0
281
     0
  0
CLASS
  1
ACAMGLAYSTD
  2
AcAmgLayStd
  3
"AmgLay|Product Description: AutoCAD Mechanical|Company: Autodesk, Inc."
 90
     1024
280
     0
281
     0
  0
CLASS
  1
ACAMGDIMSTD
  2
AcAmgDimStd
  3
"AmgDim|Product Description: AutoCAD Mechanical|Company: Autodesk, Inc."
 90
     1024
280
     0
281
     0
  0
CLASS
  1
AMGOBJPROPCFG
  2
AmgObjPropCfg
  3
"AmgLay|Product Description: AutoCAD Mechanical|Company: Autodesk, Inc."
 90
     1025
280
     0
281
     0
  0
CLASS
  1
ACAMGHOLECHARTSTDISO
  2
AcAmgHoleChartStdISO
  3
AmgDim|Product Description: AutoCAD Mechanical|Company: Autodesk, Inc.
 90
     1024
280
     0
281
     0
  0
CLASS
  1
ACAMGTITLESTD
  2
AcAmgTitleStd
  3
"AmgTitle|Product Description: AutoCAD Mechanical|Company: Autodesk, Inc."
 90
     4095
280
     0
281
     0
  0
CLASS
  1
AMDTNOTETEMPLATEDB
  2
AmdtNoteTemplateDB
  3
AcmSymBB|Product Description: AutoCAD Mechanical|Company: Autodesk, Inc.
 90
     1024
280
     0
281
     0
  0
CLASS
  1
ACAMGRCOMPDEFSET
  2
AcAmGrCompDefSet
  3
DesignerAssemblies
 90
     1024
280
     0
281
     0
  0
CLASS
  1
AMDTBROWSERDBTAB
  2
AmdtBrowserDbTab
  3
McadcomServices
 90
     1024
280
     0
281
     0
  0
CLASS
  1
CBROWSERAPPOBJECT
  2
CBrowserAppObject
  3
McadcomServices
 90
     1024
280
     0
281
     0
  0
CLASS
  1
DM_PLACEHOLDER
  2
AcDmSelsetPlaceholder
  3
McadcomServices
 90
     1024
280
     0
281
     0
  0
CLASS
  1
EXACXREFPANELOBJECT
  2
ExAcXREFPanelObject
  3
EXAC_ESW
 90
    33793
280
     0
281
     0
  0
CLASS
  1
NPOCOLLECTION
  2
AcDbImpNonPersistentObjectsCollection
  3
ObjectDBX Classes
 90
    33921
280
     0
281
     0
  0
CLASS
  1
SORTENTSTABLE
  2
AcDbSortentsTable
  3
ObjectDBX Classes
 90
    32768
280
     0
281
     0
  0
CLASS
  1
ACAMGFILTERDAT
  2
AcAmgFilterDat
  3
"AcadM|Product Description: AutoCAD Mechanical|Company: Autodesk, Inc."
 90
    33792
280
     0
281
     0
  0
CLASS
  1
CAMSSTRUCTBTNSTATE
  2
StructBtnState
  3
DesignerAssemblies
 90
    33792
280
     0
281
     0
  0
CLASS
  1
DICTIONARYVAR
  2
AcDbDictionaryVar
  3
ObjectDBX Classes
 90
        0
280
     0
281
     0
  0
CLASS
  1
CELLSTYLEMAP
  2
AcDbCellStyleMap
  3
ObjectDBX Classes
 90
     1152
280
     0
281
     0
  0
CLASS
  1
ACDBPLACEHOLDER
  2
AcDbPlaceHolder
  3
ObjectDBX Classes
 90
        0
280
     0
281
     0
  0
CLASS
  1
LAYOUT
  2
AcDbLayout
  3
ObjectDBX Classes
 90
        0
280
     0
281
     0
  0
ENDSEC
  0
SECTION
  2
TABLES
  0
TABLE
  2
VPORT
  5
8
102
{ACAD_XDICTIONARY
360
834
102
}
330
0
100
AcDbSymbolTable
 70
     1
  0
VPORT
  5
57
330
8
100
AcDbSymbolTableRecord
100
AcDbViewportTableRecord
  2
*Active
 70
     0
 10
0.0
 20
0.0
 11
1.0
 21
1.0
 12
11759.04852256937
 22
-9124.299144471107
 13
0.0
 23
0.0
 14
2.5
 24
2.5
 15
10.0
 25
10.0
 16
0.0
 26
0.0
 36
1.0
 17
0.0
 27
0.0
 37
0.0
 40
32954.2525899368
 41
1.876129032258064
 42
50.0
 43
0.0
 44
0.0
 50
0.0
 51
0.0
 71
     0
 72
  1000
 73
     1
 74
     3
 75
     0
 76
     0
 77
     0
 78
     0
281
     0
 65
     0
110
0.0
120
0.0
130
0.0
111
1.0
121
0.0
131
0.0
112
0.0
122
1.0
132
0.0
 79
     0
146
0.0
1001
ACAD_NAV_VCDISPLAY
1070
     1
  0
ENDTAB
  0
TABLE
  2
LTYPE
  5
5
330
0
100
AcDbSymbolTable
 70
    15
  0
LTYPE
  5
5B
330
5
100
AcDbSymbolTableRecord
100
AcDbLinetypeTableRecord
  2
ByBlock
 70
     0
  3

 72
    65
 73
     0
 40
0.0
  0
LTYPE
  5
5C
330
5
100
AcDbSymbolTableRecord
100
AcDbLinetypeTableRecord
  2
ByLayer
 70
     0
  3

 72
    65
 73
     0
 40
0.0
  0
LTYPE
  5
5D
330
5
100
AcDbSymbolTableRecord
100
AcDbLinetypeTableRecord
  2
Continuous
 70
     0
  3
Solid line
 72
    65
 73
     0
 40
0.0
  0
LTYPE
  5
84
330
5
100
AcDbSymbolTableRecord
100
AcDbLinetypeTableRecord
  2
HIDDEN
 70
     0
  3
Hidden __ __ __ __ __ __ __ __ __ __ __ __ __ _
 72
    65
 73
     2
 40
9.524999999999998
 49
6.349999999999999
 74
     0
 49
-3.174999999999999
 74
     0
  0
LTYPE
  5
85
330
5
100
AcDbSymbolTableRecord
100
AcDbLinetypeTableRecord
  2
PHANTOM2
 70
     0
  3
Phantom (.5x) ___ _ _ ___ _ _ ___ _ _ ___ _ _
 72
    65
 73
     6
 40
31.75
 49
15.875
 74
     0
 49
-3.174999999999999
 74
     0
 49
3.174999999999999
 74
     0
 49
-3.174999999999999
 74
     0
 49
3.174999999999999
 74
     0
 49
-3.174999999999999
 74
     0
  0
LTYPE
  5
86
330
5
100
AcDbSymbolTableRecord
100
AcDbLinetypeTableRecord
  2
CENTER
 70
     0
  3
Center ____ _ ____ _ ____ _ ____ _ ____ _ ____
 72
    65
 73
     4
 40
50.8
 49
31.75
 74
     0
 49
-6.349999999999999
 74
     0
 49
6.349999999999999
 74
     0
 49
-6.349999999999999
 74
     0
  0
LTYPE
  5
BC
330
5
100
AcDbSymbolTableRecord
100
AcDbLinetypeTableRecord
  2
AM_ISO02W050
 70
     0
  3
__ __ __ __ __ __ __ __ __ __ __ __ __ __ __
 72
    65
 73
     2
 40
7.5
 49
6.0
 74
     0
 49
-1.5
 74
     0
  0
LTYPE
  5
BD
330
5
100
AcDbSymbolTableRecord
100
AcDbLinetypeTableRecord
  2
AM_ISO08W050
 70
     0
  3
____ . ____ . ____ . ____ . ____ . ____ . ____
 72
    65
 73
     4
 40
18.0
 49
12.0
 74
     0
 49
-1.5
 74
     0
 49
3.0
 74
     0
 49
-1.5
 74
     0
  0
LTYPE
  5
BE
330
5
100
AcDbSymbolTableRecord
100
AcDbLinetypeTableRecord
  2
AM_ISO09W050
 70
     0
  3
_____ . . _____ . . _____ . . ____ .. ____
 72
    65
 73
     6
 40
22.5
 49
12.0
 74
     0
 49
-1.5
 74
     0
 49
3.0
 74
     0
 49
-1.5
 74
     0
 49
3.0
 74
     0
 49
-1.5
 74
     0
  0
LTYPE
  5
BF
330
5
100
AcDbSymbolTableRecord
100
AcDbLinetypeTableRecord
  2
Amconstr
 70
     0
  3
_______________________
 72
    65
 73
     2
 40
9999.0
 49
9999.0
 74
     0
 49
0.0
 74
     0
  0
LTYPE
  5
C0
330
5
100
AcDbSymbolTableRecord
100
AcDbLinetypeTableRecord
  2
AM_ISO08W050x2
 70
     0
  3
__ . __ . __ . __ . __ . __
 72
    65
 73
     4
 40
9.0
 49
6.0
 74
     0
 49
-0.75
 74
     0
 49
1.5
 74
     0
 49
-0.75
 74
     0
  0
LTYPE
  5
C1
330
5
100
AcDbSymbolTableRecord
100
AcDbLinetypeTableRecord
  2
AM_ISO02W050x2
 70
     0
  3
 _ _ _ _ _ _ _ _ _ _ _ _
 72
    65
 73
     2
 40
3.75
 49
3.0
 74
     0
 49
-0.75
 74
     0
  0
LTYPE
  5
C4
330
5
100
AcDbSymbolTableRecord
100
AcDbLinetypeTableRecord
  2
Amzigzag
 70
     0
  3
/\/-/\/-/\/-/\/-/\/-/\/
 72
    65
 73
     2
 40
11.0001
 49
0.0001
 74
     4
 75
   136
340
C3
 46
0.04
 50
0.0
 44
0.0
 45
0.0
 49
-11.0
 74
     0
  0
LTYPE
  5
D3
330
5
100
AcDbSymbolTableRecord
100
AcDbLinetypeTableRecord
  2
ACISOWELD
 70
     0
  3
_ _ _ _ _
 72
    65
 73
     2
 40
2.0
 49
2.0
 74
     0
 49
-1.0
 74
     0
  0
LTYPE
  5
D4
330
5
100
AcDbSymbolTableRecord
100
AcDbLinetypeTableRecord
  2
ACISOTGL
 70
     0
  3
_ _ _ _ _
 72
    65
 73
     2
 40
3.0
 49
2.0
 74
     0
 49
-1.0
 74
     0
  0
LTYPE
  5
D5
330
5
100
AcDbSymbolTableRecord
100
AcDbLinetypeTableRecord
  2
ACISOTGB
 70
     0
  3
__ . . __ . .
 72
    65
 73
     6
 40
9.0
 49
4.0
 74
     0
 49
-1.0
 74
     0
 49
1.0
 74
     0
 49
-1.0
 74
     0
 49
1.0
 74
     0
 49
-1.0
 74
     0
  0
LTYPE
  5
E7
330
5
100
AcDbSymbolTableRecord
100
AcDbLinetypeTableRecord
  2
L20
 70
     0
  3
-- -- -- -- 2,-1,2,-1
 72
    65
 73
     4
 40
6.0
 49
2.0
 74
     0
 49
-1.0
 74
     0
 49
2.0
 74
     0
 49
-1.0
 74
     0
  0
ENDTAB
  0
TABLE
  2
LAYER
  5
2
102
{ACAD_XDICTIONARY
360
FE
102
}
330
0
100
AcDbSymbolTable
 70
     7
  0
LAYER
  5
54
330
2
100
AcDbSymbolTableRecord
100
AcDbLayerTableRecord
  2
0
 70
     0
 62
     7
  6
Continuous
370
    -3
390
F
  0
LAYER
  5
E8
102
{ACAD_XDICTIONARY
360
E9
102
}
330
2
100
AcDbSymbolTableRecord
100
AcDbLayerTableRecord
  2
4
 70
     0
 62
     3
  6
Continuous
370
     0
390
F
  0
LAYER
  5
EA
102
{ACAD_XDICTIONARY
360
EB
102
}
330
2
100
AcDbSymbolTableRecord
100
AcDbLayerTableRecord
  2
SUNPO
 70
     0
 62
     1
  6
Continuous
370
    -3
390
F
  0
LAYER
  5
EC
102
{ACAD_XDICTIONARY
360
ED
102
}
330
2
100
AcDbSymbolTableRecord
100
AcDbLayerTableRecord
  2
MOJI
 70
     0
 62
     7
  6
Continuous
370
    -3
390
F
  0
LAYER
  5
EE
102
{ACAD_XDICTIONARY
360
EF
102
}
330
2
100
AcDbSymbolTableRecord
100
AcDbLayerTableRecord
  2
SEN
 70
     0
 62
     6
  6
Continuous
370
    -3
390
F
  0
LAYER
  5
F0
102
{ACAD_XDICTIONARY
360
F1
102
}
330
2
100
AcDbSymbolTableRecord
100
AcDbLayerTableRecord
  2
1
 70
     0
 62
    14
  6
Continuous
370
    -3
390
F
  0
LAYER
  5
F2
102
{ACAD_XDICTIONARY
360
F3
102
}
330
2
100
AcDbSymbolTableRecord
100
AcDbLayerTableRecord
  2
5
 70
     0
 62
     3
  6
Continuous
370
    -3
390
F
  0
ENDTAB
  0
TABLE
  2
STYLE
  5
3
330
0
100
AcDbSymbolTable
 70
     8
  0
STYLE
  5
55
330
3
100
AcDbSymbolTableRecord
100
AcDbTextStyleTableRecord
  2
STANDARD
 70
     0
 40
0.0
 41
1.0
 50
0.0
 71
     0
 42
2.5
  3
ISOCP.SHX
  4
EXTFONT.SHX
  0
STYLE
  5
5A
330
3
100
AcDbSymbolTableRecord
100
AcDbTextStyleTableRecord
  2
Annotative
 70
     0
 40
0.0
 41
1.0
 50
0.0
 71
     0
 42
0.2
  3
txt
  4

1001
AcadAnnotative
1000
AnnotativeData
1002
{
1070
     1
1070
     1
1002
}
  0
STYLE
  5
C3
330
3
100
AcDbSymbolTableRecord
100
AcDbTextStyleTableRecord
  2

 70
     1
 40
0.0
 41
1.0
 50
0.0
 71
     0
 42
2.5
  3
genltshp.shx
  4

  0
STYLE
  5
D1
330
3
100
AcDbSymbolTableRecord
100
AcDbTextStyleTableRecord
  2
ACISOTS
 70
     0
 40
1.0
 41
1.0
 50
0.0
 71
     0
 42
2.5
  3
isocp.shx
  4
extfont.shx
  0
STYLE
  5
D2
330
3
100
AcDbSymbolTableRecord
100
AcDbTextStyleTableRecord
  2
ACISOGDT
 70
     0
 40
0.0
 41
1.0
 50
0.0
 71
     0
 42
2.5
  3
amgdt.shx
  4

  0
STYLE
  5
E3
330
3
100
AcDbSymbolTableRecord
100
AcDbTextStyleTableRecord
  2
USER1
 70
     0
 40
0.0
 41
1.0
 50
0.0
 71
     0
 42
2.5
  3
TXT.SHX
  4

  0
STYLE
  5
E4
330
3
100
AcDbSymbolTableRecord
100
AcDbTextStyleTableRecord
  2
USER2
 70
     0
 40
0.0
 41
1.0
 50
0.0
 71
     0
 42
2.5
  3
SIMPLEX.SHX
  4

  0
STYLE
  5
E5
330
3
100
AcDbSymbolTableRecord
100
AcDbTextStyleTableRecord
  2
USER3
 70
     0
 40
0.0
 41
1.0
 50
0.0
 71
     0
 42
2.5
  3
ITALIC.SHX
  4

  0
ENDTAB
  0
TABLE
  2
VIEW
  5
6
330
0
100
AcDbSymbolTable
 70
     0
  0
ENDTAB
  0
TABLE
  2
UCS
  5
7
330
0
100
AcDbSymbolTable
 70
     0
  0
ENDTAB
  0
TABLE
  2
APPID
  5
9
330
0
100
AcDbSymbolTable
 70
    25
  0
APPID
  5
56
330
9
100
AcDbSymbolTableRecord
100
AcDbRegAppTableRecord
  2
ACAD
 70
     0
  0
APPID
  5
5E
330
9
100
AcDbSymbolTableRecord
100
AcDbRegAppTableRecord
  2
AcadAnnotative
 70
     0
  0
APPID
  5
76
330
9
100
AcDbSymbolTableRecord
100
AcDbRegAppTableRecord
  2
ACAD_NAV_VCDISPLAY
 70
     0
  0
APPID
  5
7D
330
9
100
AcDbSymbolTableRecord
100
AcDbRegAppTableRecord
  2
MCAD_NO_VIS
 70
     0
  0
APPID
  5
7E
330
9
100
AcDbSymbolTableRecord
100
AcDbRegAppTableRecord
  2
ACAD_TEMP_GRAPHIC
 70
     0
  0
APPID
  5
8B
330
9
100
AcDbSymbolTableRecord
100
AcDbRegAppTableRecord
  2
ACATTRIBSERVICES
 70
     0
  0
APPID
  5
A3
330
9
100
AcDbSymbolTableRecord
100
AcDbRegAppTableRecord
  2
DESIGNERASSEMBLIES
 70
     0
  0
APPID
  5
B9
330
9
100
AcDbSymbolTableRecord
100
AcDbRegAppTableRecord
  2
ACAD_DSTYLE_DIMJAG
 70
     0
  0
APPID
  5
BA
330
9
100
AcDbSymbolTableRecord
100
AcDbRegAppTableRecord
  2
ACAD_DSTYLE_DIMBREAK
 70
     0
  0
APPID
  5
F4
330
9
100
AcDbSymbolTableRecord
100
AcDbRegAppTableRecord
  2
GENIUS_GENODEF_13
 70
     0
  0
APPID
  5
F5
330
9
100
AcDbSymbolTableRecord
100
AcDbRegAppTableRecord
  2
GENIUS_GENOBJ-N-FIL_13
 70
     0
  0
APPID
  5
F6
330
9
100
AcDbSymbolTableRecord
100
AcDbRegAppTableRecord
  2
GENIUS_GENOBJ-N-CEN_13
 70
     0
  0
APPID
  5
F7
330
9
100
AcDbSymbolTableRecord
100
AcDbRegAppTableRecord
  2
GENIUS_GENFIL_13
 70
     0
  0
APPID
  5
F8
330
9
100
AcDbSymbolTableRecord
100
AcDbRegAppTableRecord
  2
GENIUS_GENOBJ-N-CHA_13
 70
     0
  0
APPID
  5
F9
330
9
100
AcDbSymbolTableRecord
100
AcDbRegAppTableRecord
  2
ACAD_PSEXT
 70
     0
  0
APPID
  5
FA
330
9
100
AcDbSymbolTableRecord
100
AcDbRegAppTableRecord
  2
AD_DRAW
 70
     0
  0
APPID
  5
FB
330
9
100
AcDbSymbolTableRecord
100
AcDbRegAppTableRecord
  2
ACADM_DIM_EDIT
 70
     0
  0
APPID
  5
FC
330
9
100
AcDbSymbolTableRecord
100
AcDbRegAppTableRecord
  2
AMDT_DM_ADJ
 70
     0
  0
APPID
  5
828
330
9
100
AcDbSymbolTableRecord
100
AcDbRegAppTableRecord
  2
ACAD_EXEMPT_FROM_CAD_STANDARDS
 70
     0
  0
APPID
  5
869
330
9
100
AcDbSymbolTableRecord
100
AcDbRegAppTableRecord
  2
ACAD_DSTYLE_DIMJOGGED_JOGANGLE_SYMBOL
 70
     0
  0
APPID
  5
86B
330
9
100
AcDbSymbolTableRecord
100
AcDbRegAppTableRecord
  2
ACAD_MLEADERVER
 70
     0
  0
APPID
  5
86C
330
9
100
AcDbSymbolTableRecord
100
AcDbRegAppTableRecord
  2
ACAD_DSTYLE_DIMARC_LENGTH_SYMBOL
 70
     0
  0
APPID
  5
86D
330
9
100
AcDbSymbolTableRecord
100
AcDbRegAppTableRecord
  2
ACAD_DSTYLE_DIM_LINETYPE
 70
     0
  0
APPID
  5
86E
330
9
100
AcDbSymbolTableRecord
100
AcDbRegAppTableRecord
  2
ACAD_DSTYLE_DIM_EXT1_LINETYPE
 70
     0
  0
APPID
  5
86F
330
9
100
AcDbSymbolTableRecord
100
AcDbRegAppTableRecord
  2
ACAD_DSTYLE_DIM_EXT2_LINETYPE
 70
     0
  0
ENDTAB
  0
TABLE
  2
DIMSTYLE
  5
A
330
0
100
AcDbSymbolTable
 70
     9
100
AcDbDimStyleTable
 71
     1
340
B8
  0
DIMSTYLE
105
58
330
A
100
AcDbSymbolTableRecord
100
AcDbDimStyleTableRecord
  2
ISO-25
 70
     0
 41
2.5
 42
0.625
 43
3.75
 44
1.25
 73
     0
 74
     0
 77
     1
 78
     8
140
2.5
141
2.5
143
0.03937007874016
147
0.625
171
     3
172
     1
271
     2
272
     2
274
     3
283
     0
284
     8
340
55
1001
ACAD_DSTYLE_DIMJOGGED_JOGANGLE_SYMBOL
1070
   384
1040
1.570796326794896
  0
DIMSTYLE
105
59
330
A
100
AcDbSymbolTableRecord
100
AcDbDimStyleTableRecord
  2
Annotative
 70
     0
340
55
1001
AcadAnnotative
1000
AnnotativeData
1002
{
1070
     1
1070
     1
1002
}
  0
DIMSTYLE
105
B8
102
{ACAD_REACTORS
330
94A
102
}
330
A
100
AcDbSymbolTableRecord
100
AcDbDimStyleTableRecord
  2
AM_ISO
 70
     0
  4
"
 41
3.5
 42
1.0
 43
10.0
 44
1.0
 47
0.1
 48
0.1
 73
     0
 74
     0
 77
     1
 78
     8
 79
     2
140
3.5
141
0.0
143
0.0393701
146
0.71
147
1.5
172
     1
176
   256
177
   256
178
     2
271
     2
272
     3
274
     4
283
     0
284
     8
340
55
371
    -1
372
    -1
1001
ACAD_DSTYLE_DIMJAG
1070
   388
1040
1.5
1001
ACAD_DSTYLE_DIMBREAK
1070
   391
1040
3.75
1001
ACAD_DSTYLE_DIMARC_LENGTH_SYMBOL
1070
   379
1070
     1
1001
ACAD_DSTYLE_DIM_LINETYPE
1070
   380
1005
5B
1001
ACAD_DSTYLE_DIM_EXT1_LINETYPE
1070
   381
1005
5B
1001
ACAD_DSTYLE_DIM_EXT2_LINETYPE
1070
   382
1005
5B
  0
DIMSTYLE
105
C5
330
A
100
AcDbSymbolTableRecord
100
AcDbDimStyleTableRecord
  2
AM_ISO$3
 70
     0
  4
"
 41
3.5
 42
1.0
 43
10.0
 44
1.0
 47
0.1
 48
0.1
 73
     0
 77
     1
 78
     8
 79
     2
140
3.5
141
0.0
143
0.0393701
146
0.71
147
1.5
176
   256
177
   256
178
     2
271
     2
272
     3
274
     4
283
     0
284
     8
288
     1
289
     0
340
55
371
    -1
372
    -1
1001
ACAD_DSTYLE_DIMBREAK
1070
   391
1040
3.75
1001
ACAD_DSTYLE_DIMJAG
1070
   388
1040
1.5
1001
ACAD_DSTYLE_DIMARC_LENGTH_SYMBOL
1070
   379
1070
     1
1001
ACAD_DSTYLE_DIM_LINETYPE
1070
   380
1005
5B
1001
ACAD_DSTYLE_DIM_EXT1_LINETYPE
1070
   381
1005
5B
1001
ACAD_DSTYLE_DIM_EXT2_LINETYPE
1070
   382
1005
5B
  0
DIMSTYLE
105
C6
330
A
100
AcDbSymbolTableRecord
100
AcDbDimStyleTableRecord
  2
AM_ISO$4
 70
     0
  4
"
 41
3.5
 42
1.0
 43
10.0
 44
1.0
 47
0.1
 48
0.1
 73
     0
 77
     1
 78
     8
 79
     2
140
3.5
141
0.0
143
0.0393701
146
0.71
147
1.5
176
   256
177
   256
178
     2
271
     2
272
     3
274
     4
283
     0
284
     8
288
     1
289
     0
340
55
371
    -1
372
    -1
1001
ACAD_DSTYLE_DIMBREAK
1070
   391
1040
3.75
1001
ACAD_DSTYLE_DIMJAG
1070
   388
1040
1.5
1001
ACAD_DSTYLE_DIMARC_LENGTH_SYMBOL
1070
   379
1070
     1
1001
ACAD_DSTYLE_DIM_LINETYPE
1070
   380
1005
5B
1001
ACAD_DSTYLE_DIM_EXT1_LINETYPE
1070
   381
1005
5B
1001
ACAD_DSTYLE_DIM_EXT2_LINETYPE
1070
   382
1005
5B
  0
DIMSTYLE
105
C7
330
A
100
AcDbSymbolTableRecord
100
AcDbDimStyleTableRecord
  2
AM_ISO$6
 70
     0
  4
"
 41
3.5
 42
1.0
 43
10.0
 44
1.0
 47
0.1
 48
0.1
 73
     0
 74
     0
 78
     8
 79
     2
140
3.5
141
0.0
143
0.0393701
146
0.71
147
1.5
172
     1
176
   256
177
   256
178
     2
271
     2
272
     3
274
     4
283
     0
284
     8
340
55
371
    -1
372
    -1
1001
ACAD_DSTYLE_DIMBREAK
1070
   391
1040
3.75
1001
ACAD_DSTYLE_DIMJAG
1070
   388
1040
1.5
1001
ACAD_DSTYLE_DIMARC_LENGTH_SYMBOL
1070
   379
1070
     1
1001
ACAD_DSTYLE_DIM_LINETYPE
1070
   380
1005
5B
1001
ACAD_DSTYLE_DIM_EXT1_LINETYPE
1070
   381
1005
5B
1001
ACAD_DSTYLE_DIM_EXT2_LINETYPE
1070
   382
1005
5B
  0
DIMSTYLE
105
C8
330
A
100
AcDbSymbolTableRecord
100
AcDbDimStyleTableRecord
  2
AM_ISO$7
 70
     0
  4
"
 41
3.5
 42
1.0
 43
10.0
 44
1.0
 47
0.1
 48
0.1
 73
     0
 74
     0
 77
     1
 78
     8
 79
     2
140
3.5
141
0.0
143
0.0393701
146
0.71
147
1.5
172
     1
176
   256
177
   256
178
     2
271
     2
272
     3
274
     4
283
     0
284
     8
340
55
371
    -1
372
    -1
1001
ACAD_DSTYLE_DIMBREAK
1070
   391
1040
3.75
1001
ACAD_DSTYLE_DIMJAG
1070
   388
1040
1.5
1001
ACAD_DSTYLE_DIMARC_LENGTH_SYMBOL
1070
   379
1070
     1
1001
ACAD_DSTYLE_DIM_LINETYPE
1070
   380
1005
5B
1001
ACAD_DSTYLE_DIM_EXT1_LINETYPE
1070
   381
1005
5B
1001
ACAD_DSTYLE_DIM_EXT2_LINETYPE
1070
   382
1005
5B
  0
DIMSTYLE
105
C9
330
A
100
AcDbSymbolTableRecord
100
AcDbDimStyleTableRecord
  2
AM_ISO$SF
 70
     0
  4
"
 41
3.5
 42
1.0
 43
10.0
 44
1.0
 47
0.1
 48
0.1
 73
     0
 74
     0
 75
     1
 76
     1
 77
     1
 78
     8
 79
     2
140
3.5
141
0.0
143
0.0393701
146
0.71
147
1.5
172
     1
176
   256
177
   256
178
     2
271
     2
272
     3
274
     4
283
     0
284
     8
340
55
371
    -1
372
    -1
1001
ACAD_DSTYLE_DIMBREAK
1070
   391
1040
3.75
1001
ACAD_DSTYLE_DIMJAG
1070
   388
1040
1.5
1001
ACAD_DSTYLE_DIMARC_LENGTH_SYMBOL
1070
   379
1070
     1
1001
ACAD_DSTYLE_DIM_LINETYPE
1070
   380
1005
5B
1001
ACAD_DSTYLE_DIM_EXT1_LINETYPE
1070
   381
1005
5B
1001
ACAD_DSTYLE_DIM_EXT2_LINETYPE
1070
   382
1005
5B
  0
DIMSTYLE
105
CE
330
A
100
AcDbSymbolTableRecord
100
AcDbDimStyleTableRecord
  2
AM_ISO$SH
 70
     0
  4
"
 41
3.5
 42
1.0
 43
10.0
 44
1.0
 47
0.1
 48
0.1
 73
     0
 74
     0
 75
     1
 76
     1
 77
     1
 78
     8
 79
     2
140
3.5
141
0.0
143
0.0393701
144
2.0
146
0.71
147
1.5
172
     1
173
     1
176
   256
177
   256
178
     2
271
     2
272
     3
274
     4
283
     0
284
     8
340
55
343
CA
371
    -1
372
    -1
1001
ACAD_DSTYLE_DIMBREAK
1070
   391
1040
3.75
1001
ACAD_DSTYLE_DIMJAG
1070
   388
1040
1.5
1001
ACAD_DSTYLE_DIMARC_LENGTH_SYMBOL
1070
   379
1070
     1
1001
ACAD_DSTYLE_DIM_LINETYPE
1070
   380
1005
5B
1001
ACAD_DSTYLE_DIM_EXT1_LINETYPE
1070
   381
1005
5B
1001
ACAD_DSTYLE_DIM_EXT2_LINETYPE
1070
   382
1005
5B
  0
ENDTAB
  0
TABLE
  2
BLOCK_RECORD
  5
1
330
0
100
AcDbSymbolTable
 70
     3
  0
BLOCK_RECORD
  5
6C
330
1
100
AcDbSymbolTableRecord
100
AcDbBlockTableRecord
  2
*Model_Space
340
6F
  0
BLOCK_RECORD
  5
68
330
1
100
AcDbSymbolTableRecord
100
AcDbBlockTableRecord
  2
*Paper_Space
340
6B
  0
BLOCK_RECORD
  5
70
330
1
100
AcDbSymbolTableRecord
100
AcDbBlockTableRecord
  2
*Paper_Space0
340
73
  0
BLOCK_RECORD
  5
CA
330
1
100
AcDbSymbolTableRecord
100
AcDbBlockTableRecord
  2
GENAXEH
340
0
  0
ENDTAB
  0
ENDSEC
  0
SECTION
  2
BLOCKS
  0
BLOCK
  5
6D
330
6C
100
AcDbEntity
  8
0
100
AcDbBlockBegin
  2
*Model_Space
 70
     0
 10
0.0
 20
0.0
 30
0.0
  3
*Model_Space
  1

  0
ENDBLK
  5
6E
330
6C
100
AcDbEntity
  8
0
100
AcDbBlockEnd
  0
BLOCK
  5
69
330
68
100
AcDbEntity
 67
     1
  8
0
100
AcDbBlockBegin
  2
*Paper_Space
 70
     0
 10
0.0
 20
0.0
 30
0.0
  3
*Paper_Space
  1

  0
ENDBLK
  5
6A
330
68
100
AcDbEntity
 67
     1
  8
0
100
AcDbBlockEnd
  0
BLOCK
  5
71
330
70
100
AcDbEntity
 67
     1
  8
0
100
AcDbBlockBegin
  2
*Paper_Space0
 70
     0
 10
0.0
 20
0.0
 30
0.0
  3
*Paper_Space0
  1

  0
ENDBLK
  5
72
330
70
100
AcDbEntity
 67
     1
  8
0
100
AcDbBlockEnd
  0
BLOCK
  5
CC
330
CA
100
AcDbEntity
  8
0
100
AcDbBlockBegin
  2
GENAXEH
 70
     0
 10
0.0
 20
0.0
 30
0.0
  3
GENAXEH
  1

  0
LINE
  5
CB
330
CA
100
AcDbEntity
  8
0
100
AcDbLine
 10
-1.0
 20
0.0
 30
0.0
 11
1.0
 21
0.0
 31
0.0
  0
ENDBLK
  5
CD
330
CA
100
AcDbEntity
  8
0
100
AcDbBlockEnd
  0
ENDSEC
  0
SECTION
  2
ENTITIES
  0
TEXT
  5
49A
330
6C
100
AcDbEntity
  8
MOJI
  6
Continuous
 62
     3
100
AcDbText
 10
1000.0
 20
100.0
 30
0.0
 40
500.0
  1
□750 三面ポール型太陽電池電波時計
100
AcDbText
  0
LINE
  5
49B
330
6C
100
AcDbEntity
  8
SEN
  6
Continuous
 62
     2
100
AcDbLine
 10
11500.22857542942
 20
-5700.000000000029
 30
0.0
 11
23500.22857542946
 21
-5700.000000000029
 31
0.0
  0
LINE
  5
49C
330
6C
100
AcDbEntity
  8
SEN
  6
Continuous
 62
     1
100
AcDbLine
 10
11500.2285754295
 20
-9900.000000000023
 30
0.0
 11
23500.2285754295
 21
-9900.000000000023
 31
0.0
  0
LINE
  5
49D
330
6C
100
AcDbEntity
  8
SEN
  6
Continuous
 62
     1
100
AcDbLine
 10
11500.2285754295
 20
-9300.000000000022
 30
0.0
 11
23500.2285754295
 21
-9300.000000000022
 31
0.0
  0
LINE
  5
49E
330
6C
100
AcDbEntity
  8
SEN
  6
Continuous
 62
     1
100
AcDbLine
 10
11500.2285754295
 20
-8700.000000000029
 30
0.0
 11
23500.2285754295
 21
-8700.000000000029
 31
0.0
  0
LINE
  5
49F
330
6C
100
AcDbEntity
  8
SEN
  6
Continuous
 62
     1
100
AcDbLine
 10
11500.2285754295
 20
-10500.00000000002
 30
0.0
 11
23500.2285754295
 21
-10500.00000000002
 31
0.0
  0
LINE
  5
4A0
330
6C
100
AcDbEntity
  8
SEN
  6
Continuous
 62
     1
100
AcDbLine
 10
11500.2285754295
 20
-11100.00000000002
 30
0.0
 11
23500.2285754295
 21
-11100.00000000002
 31
0.0
  0
LINE
  5
4A1
330
6C
100
AcDbEntity
  8
SEN
  6
Continuous
 62
     1
100
AcDbLine
 10
11500.2285754295
 20
-8100.000000000029
 30
0.0
 11
23500.2285754295
 21
-8100.000000000029
 31
0.0
  0
LINE
  5
4A2
330
6C
100
AcDbEntity
  8
SEN
  6
Continuous
 62
     1
100
AcDbLine
 10
11500.2285754295
 20
-7500.00000000003
 30
0.0
 11
23500.2285754295
 21
-7500.00000000003
 31
0.0
  0
LINE
  5
4A3
330
6C
100
AcDbEntity
  8
SEN
  6
Continuous
 62
     1
100
AcDbLine
 10
11500.2285754295
 20
-6300.000000000029
 30
0.0
 11
23500.2285754295
 21
-6300.000000000029
 31
0.0
  0
LINE
  5
4A4
330
6C
100
AcDbEntity
  8
SEN
  6
Continuous
 62
     1
100
AcDbLine
 10
11500.2285754295
 20
-6900.00000000003
 30
0.0
 11
23500.2285754295
 21
-6900.00000000003
 31
0.0
  0
LINE
  5
4A5
330
6C
100
AcDbEntity
  8
SEN
  6
Continuous
 62
     1
100
AcDbLine
 10
11500.22857542946
 20
-15900.00000000002
 30
0.0
 11
23500.2285754295
 21
-15900.00000000002
 31
0.0
  0
LINE
  5
4A6
330
6C
100
AcDbEntity
  8
SEN
  6
Continuous
 62
     1
100
AcDbLine
 10
11500.22857542946
 20
-15300.00000000002
 30
0.0
 11
23500.2285754295
 21
-15300.00000000002
 31
0.0
  0
LINE
  5
4A7
330
6C
100
AcDbEntity
  8
SEN
  6
Continuous
 62
     1
100
AcDbLine
 10
11500.22857542946
 20
-14700.00000000002
 30
0.0
 11
23500.2285754295
 21
-14700.00000000002
 31
0.0
  0
LINE
  5
4A8
330
6C
100
AcDbEntity
  8
SEN
  6
Continuous
 62
     1
100
AcDbLine
 10
11500.22857542946
 20
-16500.00000000002
 30
0.0
 11
23500.2285754295
 21
-16500.00000000002
 31
0.0
  0
LINE
  5
4A9
330
6C
100
AcDbEntity
  8
SEN
  6
Continuous
 62
     1
100
AcDbLine
 10
11500.22857542946
 20
-17100.00000000002
 30
0.0
 11
23500.2285754295
 21
-17100.00000000002
 31
0.0
  0
LINE
  5
4AA
330
6C
100
AcDbEntity
  8
SEN
  6
Continuous
 62
     1
100
AcDbLine
 10
11500.22857542947
 20
-14100.00000000002
 30
0.0
 11
23500.2285754295
 21
-14100.00000000002
 31
0.0
  0
LINE
  5
4AB
330
6C
100
AcDbEntity
  8
SEN
  6
Continuous
 62
     1
100
AcDbLine
 10
11500.22857542947
 20
-13500.00000000002
 30
0.0
 11
23500.2285754295
 21
-13500.00000000002
 31
0.0
  0
LINE
  5
4AC
330
6C
100
AcDbEntity
  8
SEN
  6
Continuous
 62
     1
100
AcDbLine
 10
11500.22857542947
 20
-11700.00000000002
 30
0.0
 11
23500.2285754295
 21
-11700.00000000002
 31
0.0
  0
LINE
  5
4AD
330
6C
100
AcDbEntity
  8
SEN
  6
Continuous
 62
     1
100
AcDbLine
 10
11500.22857542947
 20
-12300.00000000002
 30
0.0
 11
23500.2285754295
 21
-12300.00000000002
 31
0.0
  0
LINE
  5
4AE
330
6C
100
AcDbEntity
  8
SEN
  6
Continuous
 62
     1
100
AcDbLine
 10
11500.22857542947
 20
-12900.00000000002
 30
0.0
 11
23500.2285754295
 21
-12900.00000000002
 31
0.0
  0
LINE
  5
4AF
330
6C
100
AcDbEntity
  8
SEN
  6
Continuous
 62
     1
100
AcDbLine
 10
11500.22857542946
 20
-18900.00000000002
 30
0.0
 11
23500.22857542947
 21
-18900.00000000002
 31
0.0
  0
LINE
  5
4B0
330
6C
100
AcDbEntity
  8
SEN
  6
Continuous
 62
     1
100
AcDbLine
 10
11500.22857542946
 20
-18300.00000000002
 30
0.0
 11
23500.22857542947
 21
-18300.00000000002
 31
0.0
  0
LINE
  5
4B1
330
6C
100
AcDbEntity
  8
SEN
  6
Continuous
 62
     1
100
AcDbLine
 10
11500.22857542946
 20
-17700.00000000002
 30
0.0
 11
23500.22857542947
 21
-17700.00000000002
 31
0.0
  0
LINE
  5
4B2
330
6C
100
AcDbEntity
  8
SEN
  6
Continuous
 62
     1
100
AcDbLine
 10
11500.22857542946
 20
-19500.00000000002
 30
0.0
 11
23500.22857542947
 21
-19500.00000000002
 31
0.0
  0
LINE
  5
4B3
330
6C
100
AcDbEntity
  8
SEN
  6
Continuous
 62
     1
100
AcDbLine
 10
11500.22857542946
 20
-20100.00000000002
 30
0.0
 11
23500.22857542947
 21
-20100.00000000002
 31
0.0
  0
LINE
  5
4B4
330
6C
100
AcDbEntity
  8
SEN
  6
Continuous
 62
     1
100
AcDbLine
 10
11500.22857542946
 20
-20700.00000000002
 30
0.0
 11
23500.22857542946
 21
-20700.00000000002
 31
0.0
  0
LINE
  5
4B5
330
6C
100
AcDbEntity
  8
SEN
  6
Continuous
 62
     1
100
AcDbLine
 10
11500.22857542946
 20
-21900.00000000002
 30
0.0
 11
23500.22857542946
 21
-21900.00000000002
 31
0.0
  0
LINE
  5
4B6
330
6C
100
AcDbEntity
  8
SEN
  6
Continuous
 62
     1
100
AcDbLine
 10
11500.22857542946
 20
-21300.00000000002
 30
0.0
 11
23500.22857542946
 21
-21300.00000000002
 31
0.0
  0
LINE
  5
4B7
330
6C
100
AcDbEntity
  8
SEN
  6
Continuous
 62
     2
100
AcDbLine
 10
11500.22857542946
 20
-23700.00000000002
 30
0.0
 11
23500.22857542946
 21
-23700.00000000002
 31
0.0
  0
LINE
  5
4B8
330
6C
100
AcDbEntity
  8
SEN
  6
Continuous
 62
     1
100
AcDbLine
 10
11500.22857542946
 20
-22500.00000000002
 30
0.0
 11
23500.22857542946
 21
-22500.00000000002
 31
0.0
  0
LINE
  5
4B9
330
6C
100
AcDbEntity
  8
SEN
  6
Continuous
 62
     1
100
AcDbLine
 10
11500.22857542946
 20
-23100.00000000002
 30
0.0
 11
23500.22857542946
 21
-23100.00000000002
 31
0.0
  0
LINE
  5
4BA
330
6C
100
AcDbEntity
  8
SUNPO
  6
Continuous
 62
     1
100
AcDbLine
 10
3484.472899053042
 20
-19710.93047057636
 30
0.0
 11
3484.472899053042
 21
-20710.93047057637
 31
0.0
  0
LINE
  5
4BB
330
6C
100
AcDbEntity
  8
SUNPO
  6
Continuous
 62
     1
100
AcDbLine
 10
734.472899053042
 20
-19710.93047057636
 30
0.0
 11
734.472899053042
 21
-20710.93047057637
 31
0.0
  0
LINE
  5
4BC
330
6C
100
AcDbEntity
  8
SEN
  6
Continuous
 62
     2
100
AcDbLine
 10
11500.2285754295
 20
-5700.000000000029
 30
0.0
 11
11500.22857542946
 21
-23700.00000000002
 31
0.0
  0
LINE
  5
4BD
330
6C
100
AcDbEntity
  8
SUNPO
  6
Continuous
 62
     1
100
AcDbLine
 10
734.472899053042
 20
-20510.93047057637
 30
0.0
 11
3484.472899053042
 21
-20510.93047057636
 31
0.0
  0
TEXT
  5
4BE
330
6C
100
AcDbEntity
  8
SUNPO
  6
Continuous
 62
     4
100
AcDbText
 10
1575.788023386467
 20
-20407.32049226401
 30
0.0
 40
300.0
  1
□1100
 72
     1
 11
2113.406133622688
 21
-20407.32049226401
 31
0.0
100
AcDbText
  0
LINE
  5
4BF
330
6C
100
AcDbEntity
  8
SUNPO
  6
Continuous
 62
     1
100
AcDbLine
 10
934.472899053042
 20
-20560.93047057637
 30
0.0
 11
734.472899053042
 21
-20510.93047057637
 31
0.0
  0
LINE
  5
4C0
330
6C
100
AcDbEntity
  8
SUNPO
  6
Continuous
 62
     1
100
AcDbLine
 10
734.472899053042
 20
-20510.93047057637
 30
0.0
 11
934.472899053042
 21
-20460.93047057636
 31
0.0
  0
LINE
  5
4C1
330
6C
100
AcDbEntity
  8
SUNPO
  6
Continuous
 62
     1
100
AcDbLine
 10
3484.472899053042
 20
-20510.93047057637
 30
0.0
 11
3284.472899053042
 21
-20560.93047057637
 31
0.0
  0
LINE
  5
4C2
330
6C
100
AcDbEntity
  8
SUNPO
  6
Continuous
 62
     1
100
AcDbLine
 10
3284.472899053042
 20
-20460.93047057636
 30
0.0
 11
3484.472899053042
 21
-20510.93047057637
 31
0.0
  0
LINE
  5
4C3
330
6C
100
AcDbEntity
  8
0
  6
Continuous
 62
     7
100
AcDbLine
 10
859.472899053042
 20
-17085.93047057637
 30
0.0
 11
234.9728990530421
 21
-17085.93047057637
 31
0.0
  0
LINE
  5
4C4
330
6C
100
AcDbEntity
  8
0
  6
Continuous
 62
     3
100
AcDbLine
 10
2315.972899053042
 20
-5833.430470576218
 30
0.0
 11
2315.972899053042
 21
-17085.93047057635
 31
0.0
  0
LINE
  5
4C5
330
6C
100
AcDbEntity
  8
0
  6
Continuous
 62
     3
100
AcDbLine
 10
1902.972899053042
 20
-5833.430470576218
 30
0.0
 11
1902.972899053042
 21
-17085.93047057635
 31
0.0
  0
LINE
  5
4C6
330
6C
100
AcDbEntity
  8
0
  6
Continuous
 62
     3
100
AcDbLine
 10
8550.658398711764
 20
-5833.430470576204
 30
0.0
 11
8550.658398711764
 21
-19085.93047057636
 31
0.0
  0
LINE
  5
4C7
330
6C
100
AcDbEntity
  8
0
  6
Continuous
 62
     3
100
AcDbLine
 10
8137.658398711733
 20
-5833.430470576211
 30
0.0
 11
8137.658398711733
 21
-19085.93047057636
 31
0.0
  0
LINE
  5
4C8
330
6C
100
AcDbEntity
  8
SUNPO
  6
Continuous
 62
     1
100
AcDbLine
 10
4783.972899053027
 20
-17085.93047057637
 30
0.0
 11
4783.972899053027
 21
-5335.930470576364
 31
0.0
  0
LINE
  5
4C9
330
6C
100
AcDbEntity
  8
0
  6
Continuous
 62
     7
100
AcDbLine
 10
3983.972899053043
 20
-17085.93047057637
 30
0.0
 11
3359.472899053042
 21
-17085.93047057637
 31
0.0
  0
LINE
  5
4CA
330
6C
100
AcDbEntity
  8
0
  6
L20
 62
     2
100
AcDbLine
 10
2315.972899053042
 20
-17085.93047057637
 30
0.0
 11
2315.972899053042
 21
-19085.93047057636
 31
0.0
  0
LINE
  5
4CB
330
6C
100
AcDbEntity
  8
0
  6
Continuous
 62
     1
100
AcDbLine
 10
734.472899053042
 20
-17481.81820625845
 30
0.0
 11
1130.360634734068
 21
-17085.93047057637
 31
0.0
  0
LINE
  5
4CC
330
6C
100
AcDbEntity
  8
0
  6
Continuous
 62
     1
100
AcDbLine
 10
734.472899053042
 20
-17570.20655375822
 30
0.0
 11
1218.748982233927
 21
-17085.93047057637
 31
0.0
  0
LINE
  5
4CD
330
6C
100
AcDbEntity
  8
0
  6
Continuous
 62
     1
100
AcDbLine
 10
734.472899053042
 20
-18012.14829214794
 30
0.0
 11
1660.690720623795
 21
-17085.93047057637
 31
0.0
  0
LINE
  5
4CE
330
6C
100
AcDbEntity
  8
0
  6
L20
 62
     2
100
AcDbLine
 10
1902.972899053042
 20
-17085.93047057637
 30
0.0
 11
1902.972899053042
 21
-19085.93047057635
 31
0.0
  0
LINE
  5
4CF
330
6C
100
AcDbEntity
  8
0
  6
Continuous
 62
     1
100
AcDbLine
 10
734.472899053042
 20
-18100.5366396477
 30
0.0
 11
1749.079068124381
 21
-17085.93047057637
 31
0.0
  0
LINE
  5
4D0
330
6C
100
AcDbEntity
  8
0
  6
Continuous
 62
     1
100
AcDbLine
 10
1251.680978293705
 20
-19085.93047057635
 30
0.0
 11
3251.680978293705
 21
-17085.93047057637
 31
0.0
  0
LINE
  5
4D1
330
6C
100
AcDbEntity
  8
0
  6
Continuous
 62
     1
100
AcDbLine
 10
734.472899053042
 20
-19072.8084639273
 30
0.0
 11
2721.350892403978
 21
-17085.93047057637
 31
0.0
  0
LINE
  5
4D2
330
6C
100
AcDbEntity
  8
0
  6
Continuous
 62
     1
100
AcDbLine
 10
1340.069325793563
 20
-19085.93047057635
 30
0.0
 11
3340.069325793564
 21
-17085.93047057637
 31
0.0
  0
LINE
  5
4D3
330
6C
100
AcDbEntity
  8
0
  6
Continuous
 62
     1
100
AcDbLine
 10
809.7392399038508
 20
-19085.93047057635
 30
0.0
 11
2809.739239903836
 21
-17085.93047057637
 31
0.0
  0
LINE
  5
4D4
330
6C
100
AcDbEntity
  8
0
  6
Continuous
 62
     1
100
AcDbLine
 10
1782.011064183389
 20
-19085.93047057636
 30
0.0
 11
3484.472899053042
 21
-17383.46863570754
 31
0.0
  0
LINE
  5
4D5
330
6C
100
AcDbEntity
  8
0
  6
Continuous
 62
     1
100
AcDbLine
 10
734.472899053042
 20
-18542.47837803758
 30
0.0
 11
2191.02080651425
 21
-17085.93047057637
 31
0.0
  0
LINE
  5
4D6
330
6C
100
AcDbEntity
  8
0
  6
Continuous
 62
     1
100
AcDbLine
 10
734.472899053042
 20
-18630.86672553742
 30
0.0
 11
2279.409154014109
 21
-17085.93047057637
 31
0.0
  0
LINE
  5
4D7
330
6C
100
AcDbEntity
  8
0
  6
Continuous
 62
     3
100
AcDbLine
 10
734.472899053042
 20
-19335.93047057636
 30
0.0
 11
734.472899053042
 21
-17085.93047057637
 31
0.0
  0
LINE
  5
4D8
330
6C
100
AcDbEntity
  8
0
  6
Continuous
 62
     3
100
AcDbLine
 10
3484.472899053042
 20
-17085.93047057637
 30
0.0
 11
3484.472899053042
 21
-19335.93047057636
 31
0.0
  0
LINE
  5
4D9
330
6C
100
AcDbEntity
  8
0
  6
Continuous
 62
     1
100
AcDbLine
 10
1870.399411684018
 20
-19085.93047057636
 30
0.0
 11
3484.472899053042
 21
-17471.85698320734
 31
0.0
  0
LINE
  5
4DA
330
6C
100
AcDbEntity
  8
0
  6
Continuous
 62
     3
100
AcDbLine
 10
734.472899053042
 20
-19085.93047057635
 30
0.0
 11
3484.472899053042
 21
-19085.93047057636
 31
0.0
  0
LWPOLYLINE
  5
4DB
330
6C
100
AcDbEntity
  8
0
  6
Continuous
 62
     3
100
AcDbPolyline
 90
        2
 70
     1
 43
25.0
 10
2096.972899053042
 20
-18460.93047057636
 42
1.0
 10
2121.972899053042
 20
-18460.93047057636
 42
1.0
  0
LINE
  5
4DC
330
6C
100
AcDbEntity
  8
0
  6
Continuous
 62
     3
100
AcDbLine
 10
3484.472899053042
 20
-19335.93047057636
 30
0.0
 11
734.472899053042
 21
-19335.93047057635
 31
0.0
  0
LINE
  5
4DD
330
6C
100
AcDbEntity
  8
0
  6
Continuous
 62
     1
100
AcDbLine
 10
1305.601929059747
 20
-19335.93047057636
 30
0.0
 11
1055.601929059747
 21
-19085.93047057636
 31
0.0
  0
LINE
  5
4DE
330
6C
100
AcDbEntity
  8
0
  6
Continuous
 62
     1
100
AcDbLine
 10
861.9599064367939
 20
-19175.1311604288
 30
0.0
 11
772.7592165850801
 21
-19085.93047057636
 31
0.0
  0
LINE
  5
4DF
330
6C
100
AcDbEntity
  8
0
  6
Continuous
 62
     1
100
AcDbLine
 10
739.9165041104133
 20
-19335.93047057636
 30
0.0
 11
734.472899053042
 21
-19330.48686551899
 31
0.0
  0
LINE
  5
4E0
330
6C
100
AcDbEntity
  8
0
  6
Continuous
 62
     1
100
AcDbLine
 10
1022.75921658508
 20
-19335.93047057636
 30
0.0
 11
1003.381262674491
 21
-19316.55251666649
 31
0.0
  0
LINE
  5
4E1
330
6C
100
AcDbEntity
  8
0
  6
Continuous
 62
     1
100
AcDbLine
 10
734.472899053042
 20
-19302.61816781256
 30
0.0
 11
951.1605962892353
 21
-19085.93047057636
 31
0.0
  0
LINE
  5
4E2
330
6C
100
AcDbEntity
  8
0
  6
Continuous
 62
     1
100
AcDbLine
 10
984.0033087638875
 20
-19335.93047057636
 30
0.0
 11
1144.802618899077
 21
-19175.13116044189
 31
0.0
  0
LINE
  5
4E3
330
6C
100
AcDbEntity
  8
0
  6
Continuous
 62
     1
100
AcDbLine
 10
1427.645331386127
 20
-19175.1311604288
 30
0.0
 11
1338.444641534414
 21
-19085.93047057636
 31
0.0
  0
LINE
  5
4E4
330
6C
100
AcDbEntity
  8
0
  6
Continuous
 62
     1
100
AcDbLine
 10
1993.330756335461
 20
-19175.1311604288
 30
0.0
 11
1904.130066483019
 21
-19085.93047057636
 31
0.0
  0
LINE
  5
4E5
330
6C
100
AcDbEntity
  8
0
  6
Continuous
 62
     1
100
AcDbLine
 10
1588.444641534384
 20
-19335.93047057636
 30
0.0
 11
1569.066687623825
 21
-19316.55251666649
 31
0.0
  0
LINE
  5
4E6
330
6C
100
AcDbEntity
  8
0
  6
Continuous
 62
     1
100
AcDbLine
 10
1286.223975136046
 20
-19316.55251667886
 30
0.0
 11
1516.846021238569
 21
-19085.93047057636
 31
0.0
  0
LINE
  5
4E7
330
6C
100
AcDbEntity
  8
0
  6
Continuous
 62
     1
100
AcDbLine
 10
1549.688733713235
 20
-19335.93047057636
 30
0.0
 11
1710.488043848425
 21
-19175.13116044189
 31
0.0
  0
LINE
  5
4E8
330
6C
100
AcDbEntity
  8
0
  6
Continuous
 62
     1
100
AcDbLine
 10
1871.287354008353
 20
-19335.93047057636
 30
0.0
 11
1621.287354008338
 21
-19085.93047057636
 31
0.0
  0
LINE
  5
4E9
330
6C
100
AcDbEntity
  8
0
  6
Continuous
 62
     1
100
AcDbLine
 10
1851.909400085395
 20
-19316.55251667886
 30
0.0
 11
2082.531446187902
 21
-19085.93047057636
 31
0.0
  0
LINE
  5
4EA
330
6C
100
AcDbEntity
  8
0
  6
Continuous
 62
     1
100
AcDbLine
 10
2931.059583463488
 20
-19085.93047057635
 30
0.0
 11
3484.472899053042
 21
-18532.51715498679
 31
0.0
  0
LINE
  5
4EB
330
6C
100
AcDbEntity
  8
0
  6
Continuous
 62
     1
100
AcDbLine
 10
2340.320133468747
 20
-18568.95019414348
 30
0.0
 11
2365.681277539959
 21
-18619.65845619613
 31
0.0
  0
LINE
  5
4EC
330
6C
100
AcDbEntity
  8
0
  6
Continuous
 62
     1
100
AcDbLine
 10
2842.671235963615
 20
-19085.93047057636
 30
0.0
 11
3484.472899053042
 21
-18444.12880748694
 31
0.0
  0
LINE
  5
4ED
330
6C
100
AcDbEntity
  8
0
  6
Continuous
 62
     1
100
AcDbLine
 10
2312.341150073887
 20
-19085.93047057636
 30
0.0
 11
3484.472899053042
 21
-17913.79872159721
 31
0.0
  0
LINE
  5
4EE
330
6C
100
AcDbEntity
  8
0
  6
Continuous
 62
     1
100
AcDbLine
 10
2400.729497573746
 20
-19085.93047057635
 30
0.0
 11
3484.472899053042
 21
-18002.18706909706
 31
0.0
  0
LINE
  5
4EF
330
6C
100
AcDbEntity
  8
0
  6
Continuous
 62
     1
100
AcDbLine
 10
3002.658203907035
 20
-19335.93047057636
 30
0.0
 11
2752.658203907005
 21
-19085.93047057636
 31
0.0
  0
LINE
  5
4F0
330
6C
100
AcDbEntity
  8
0
  6
Continuous
 62
     1
100
AcDbLine
 10
2398.288475462294
 20
-18677.61075568467
 30
0.0
 11
2463.502960115118
 21
-18760.91718619988
 31
0.0
  0
LINE
  5
4F1
330
6C
100
AcDbEntity
  8
0
  6
Continuous
 62
     1
100
AcDbLine
 10
2559.016181284795
 20
-19175.1311604288
 30
0.0
 11
2469.815491432368
 21
-19085.93047057636
 31
0.0
  0
LINE
  5
4F2
330
6C
100
AcDbEntity
  8
0
  6
Continuous
 62
     3
100
AcDbLine
 10
2581.431840612582
 20
-19043.43464620667
 30
0.0
 11
2606.431840612582
 21
-19043.43464620667
 31
0.0
  0
LINE
  5
4F3
330
6C
100
AcDbEntity
  8
0
  6
Continuous
 62
     1
100
AcDbLine
 10
2579.439732911822
 20
-18992.72638415402
 30
0.0
 11
2593.931840612611
 21
-19043.43464620667
 31
0.0
  0
LINE
  5
4F4
330
6C
100
AcDbEntity
  8
0
  6
Continuous
 62
     1
100
AcDbLine
 10
2481.618050336663
 20
-18855.08967286857
 30
0.0
 11
2521.471302108665
 21
-18942.01812210137
 31
0.0
  0
LINE
  5
4F5
330
6C
100
AcDbEntity
  8
0
  6
Continuous
 62
     1
100
AcDbLine
 10
2521.471302108665
 20
-18942.01812210137
 30
0.0
 11
2579.439732911822
 21
-18992.72638415402
 31
0.0
  0
LINE
  5
4F6
330
6C
100
AcDbEntity
  8
0
  6
Continuous
 62
     1
100
AcDbLine
 10
2463.502960115118
 20
-18760.91718619988
 30
0.0
 11
2481.618050336663
 21
-18855.08967286857
 31
0.0
  0
LINE
  5
4F7
330
6C
100
AcDbEntity
  8
0
  6
Continuous
 62
     1
100
AcDbLine
 10
2365.681277539959
 20
-18619.65845619613
 30
0.0
 11
2398.288475462294
 21
-18677.61075568467
 31
0.0
  0
LINE
  5
4F8
330
6C
100
AcDbEntity
  8
0
  6
Continuous
 62
     1
100
AcDbLine
 10
2154.13006648302
 20
-19335.93047057636
 30
0.0
 11
2134.752112573158
 21
-19316.55251666649
 31
0.0
  0
LINE
  5
4F9
330
6C
100
AcDbEntity
  8
0
  6
Continuous
 62
     3
100
AcDbLine
 10
2606.431840612582
 20
-19554.13935215089
 30
0.0
 11
2581.431840612582
 21
-19554.13935215089
 31
0.0
  0
LINE
  5
4FA
330
6C
100
AcDbEntity
  8
0
  6
Continuous
 62
     1
100
AcDbLine
 10
2719.815491432353
 20
-19335.93047057636
 30
0.0
 11
2700.437537522492
 21
-19316.55251666649
 31
0.0
  0
LINE
  5
4FB
330
6C
100
AcDbEntity
  8
0
  6
Continuous
 62
     1
100
AcDbLine
 10
2436.972778957687
 20
-19335.93047057636
 30
0.0
 11
2186.972778957686
 21
-19085.93047057636
 31
0.0
  0
LINE
  5
4FC
330
6C
100
AcDbEntity
  8
0
  6
Continuous
 62
     1
100
AcDbLine
 10
2115.374158662569
 20
-19335.93047057636
 30
0.0
 11
2276.173468797759
 21
-19175.13116044189
 31
0.0
  0
LINE
  5
4FD
330
6C
100
AcDbEntity
  8
0
  6
Continuous
 62
     1
100
AcDbLine
 10
2681.059583611903
 20
-19335.93047057636
 30
0.0
 11
2841.858893747092
 21
-19175.13116044189
 31
0.0
  0
LINE
  5
4FE
330
6C
100
AcDbEntity
  8
0
  6
Continuous
 62
     3
100
AcDbLine
 10
2581.431840612582
 20
-19043.43464620667
 30
0.0
 11
2581.431840612582
 21
-19554.13935215089
 31
0.0
  0
LINE
  5
4FF
330
6C
100
AcDbEntity
  8
0
  6
Continuous
 62
     3
100
AcDbLine
 10
2606.431840612582
 20
-19043.43464620667
 30
0.0
 11
2606.431840612582
 21
-19554.13935215089
 31
0.0
  0
LINE
  5
500
330
6C
100
AcDbEntity
  8
0
  6
Continuous
 62
     1
100
AcDbLine
 10
2417.594825034728
 20
-19316.55251667886
 30
0.0
 11
2648.216871137236
 21
-19085.93047057636
 31
0.0
  0
LINE
  5
501
330
6C
100
AcDbEntity
  8
0
  6
Continuous
 62
     1
100
AcDbLine
 10
3124.701606234143
 20
-19175.1311604288
 30
0.0
 11
3035.500916381687
 21
-19085.93047057636
 31
0.0
  0
LINE
  5
502
330
6C
100
AcDbEntity
  8
0
  6
Continuous
 62
     1
100
AcDbLine
 10
3461.389669353201
 20
-19085.93047057636
 30
0.0
 11
3484.472899053042
 21
-19062.84724087652
 31
0.0
  0
LINE
  5
503
330
6C
100
AcDbEntity
  8
0
  6
Continuous
 62
     1
100
AcDbLine
 10
3373.001321853343
 20
-19085.93047057636
 30
0.0
 11
3484.472899053042
 21
-18974.45889337667
 31
0.0
  0
LINE
  5
504
330
6C
100
AcDbEntity
  8
0
  6
Continuous
 62
     1
100
AcDbLine
 10
3285.500916381687
 20
-19335.93047057636
 30
0.0
 11
3266.122962471825
 21
-19316.55251666649
 31
0.0
  0
LINE
  5
505
330
6C
100
AcDbEntity
  8
0
  6
Continuous
 62
     1
100
AcDbLine
 10
2983.280249984062
 20
-19316.55251667886
 30
0.0
 11
3213.902296086569
 21
-19085.93047057636
 31
0.0
  0
LINE
  5
506
330
6C
100
AcDbEntity
  8
0
  6
Continuous
 62
     1
100
AcDbLine
 10
3484.472899053042
 20
-19252.05974077303
 30
0.0
 11
3318.343628856339
 21
-19085.93047057636
 31
0.0
  0
LINE
  5
507
330
6C
100
AcDbEntity
  8
0
  6
Continuous
 62
     1
100
AcDbLine
 10
3246.745008561236
 20
-19335.93047057636
 30
0.0
 11
3407.544318696426
 21
-19175.13116044189
 31
0.0
  0
LINE
  5
508
330
6C
100
AcDbEntity
  8
0
  6
Continuous
 62
     1
100
AcDbLine
 10
2202.645199120845
 20
-18550.84010055341
 30
0.0
 11
2340.320133468747
 21
-18568.95019414348
 31
0.0
  0
LINE
  5
509
330
6C
100
AcDbEntity
  8
0
  6
Continuous
 62
     1
100
AcDbLine
 10
2109.472899053042
 20
-18460.93047057636
 30
0.0
 11
2202.645199120845
 21
-18550.84010055341
 31
0.0
  0
LINE
  5
50A
330
6C
100
AcDbEntity
  8
0
  6
Continuous
 62
     7
100
AcDbLine
 10
859.472899053042
 20
-17085.93047057637
 30
0.0
 11
3359.472899053042
 21
-17085.93047057637
 31
0.0
  0
LINE
  5
50B
330
6C
100
AcDbEntity
  8
0
  6
Continuous
 62
     2
100
AcDbLine
 10
1902.972899053042
 20
-16985.93047057637
 30
0.0
 11
2315.972899053042
 21
-16985.93047057637
 31
0.0
  0
LINE
  5
50C
330
6C
100
AcDbEntity
  8
0
  6
Continuous
 62
     2
100
AcDbLine
 10
734.472899053042
 20
-17085.93047057637
 30
0.0
 11
1902.972899053042
 21
-16985.93047057637
 31
0.0
  0
LINE
  5
50D
330
6C
100
AcDbEntity
  8
0
  6
Continuous
 62
     2
100
AcDbLine
 10
2315.972899053042
 20
-16985.93047057637
 30
0.0
 11
3484.472899053042
 21
-17085.93047057637
 31
0.0
  0
LINE
  5
50E
330
6C
100
AcDbEntity
  8
SUNPO
  6
Continuous
 62
     1
100
AcDbLine
 10
4783.972899053027
 20
-19335.93047057624
 30
0.0
 11
4783.972899053027
 21
-17085.93047057642
 31
0.0
  0
LINE
  5
50F
330
6C
100
AcDbEntity
  8
SUNPO
  6
Continuous
 62
     1
100
AcDbLine
 10
3983.972899053043
 20
-19335.93047057624
 30
0.0
 11
4983.972899053043
 21
-19335.93047057624
 31
0.0
  0
LINE
  5
510
330
6C
100
AcDbEntity
  8
SUNPO
  6
Continuous
 62
     1
100
AcDbLine
 10
4733.972899053042
 20
-19135.93047057624
 30
0.0
 11
4783.972899053043
 21
-19335.93047057624
 31
0.0
  0
LINE
  5
511
330
6C
100
AcDbEntity
  8
SUNPO
  6
Continuous
 62
     1
100
AcDbLine
 10
4783.972899053043
 20
-19335.93047057624
 30
0.0
 11
4833.972899053042
 21
-19135.93047057624
 31
0.0
  0
TEXT
  5
512
330
6C
100
AcDbEntity
  8
SUNPO
  6
Continuous
 62
     4
100
AcDbText
 10
4683.972899053027
 20
-18520.86753725253
 30
0.0
 40
300.0
  1
900
 50
90.0
 72
     1
 11
4683.972899053027
 21
-18210.91433130362
 31
0.0
100
AcDbText
 73
     1
  0
LINE
  5
513
330
6C
100
AcDbEntity
  8
SUNPO
  6
Continuous
 62
     1
100
AcDbLine
 10
3983.972899053043
 20
-17085.93047057642
 30
0.0
 11
4983.972899053043
 21
-17085.93047057642
 31
0.0
  0
LINE
  5
514
330
6C
100
AcDbEntity
  8
SUNPO
  6
Continuous
 62
     1
100
AcDbLine
 10
4783.972899052984
 20
-17085.93047057642
 30
0.0
 11
4733.972899052984
 21
-17285.93047057641
 31
0.0
  0
LINE
  5
515
330
6C
100
AcDbEntity
  8
SUNPO
  6
Continuous
 62
     1
100
AcDbLine
 10
4833.972899052984
 20
-17285.93047057641
 30
0.0
 11
4783.972899052984
 21
-17085.93047057642
 31
0.0
  0
LINE
  5
516
330
6C
100
AcDbEntity
  8
SUNPO
  6
Continuous
 62
     1
100
AcDbLine
 10
4733.972899053042
 20
-16885.93047057642
 30
0.0
 11
4783.972899053043
 21
-17085.93047057642
 31
0.0
  0
LINE
  5
517
330
6C
100
AcDbEntity
  8
SUNPO
  6
Continuous
 62
     1
100
AcDbLine
 10
4783.972899053043
 20
-17085.93047057642
 30
0.0
 11
4833.972899053042
 21
-16885.93047057642
 31
0.0
  0
TEXT
  5
518
330
6C
100
AcDbEntity
  8
SUNPO
  6
Continuous
 62
     4
100
AcDbText
 10
2949.813468235486
 20
-14283.08990139464
 30
0.0
 40
250.0
  1
制御部
 11
2949.813468235486
 21
-14283.08990139464
 31
0.0
100
AcDbText
 73
     1
  0
LINE
  5
519
330
6C
100
AcDbEntity
  8
SUNPO
  6
Continuous
 62
     1
100
AcDbLine
 10
2849.813468235487
 20
-14283.08990139464
 30
0.0
 11
3863.065173192678
 21
-14283.08990139464
 31
0.0
  0
LINE
  5
51A
330
6C
100
AcDbEntity
  8
SUNPO
  6
Continuous
 62
     1
100
AcDbLine
 10
2109.472899053042
 20
-15023.43047057636
 30
0.0
 11
2286.249594349618
 21
-14917.36445339827
 31
0.0
  0
LINE
  5
51B
330
6C
100
AcDbEntity
  8
SUNPO
  6
Continuous
 62
     1
100
AcDbLine
 10
2215.538916231118
 20
-14846.65377527978
 30
0.0
 11
2109.472899053042
 21
-15023.43047057636
 31
0.0
  0
LINE
  5
51C
330
6C
100
AcDbEntity
  8
SUNPO
  6
Continuous
 62
     1
100
AcDbLine
 10
2109.472899053042
 20
-15023.43047057636
 30
0.0
 11
2849.813468235487
 21
-14283.08990139464
 31
0.0
  0
TEXT
  5
51D
330
6C
100
AcDbEntity
  8
SUNPO
  6
Continuous
 62
     4
100
AcDbText
 10
4683.972899053027
 20
-11646.03244153988
 30
0.0
 40
300.0
  1
4700
 50
90.0
 72
     1
 11
4683.972899053027
 21
-11210.91433130366
 31
0.0
100
AcDbText
 73
     1
  0
LINE
  5
51E
330
6C
100
AcDbEntity
  8
0
  6
Continuous
 62
     3
100
AcDbLine
 10
8137.658398711733
 20
-19085.93047057636
 30
0.0
 11
8550.658398711778
 21
-19085.93047057636
 31
0.0
  0
LINE
  5
51F
330
6C
100
AcDbEntity
  8
0
  6
Continuous
 62
     7
100
AcDbLine
 10
8550.658398711764
 20
-17085.93047057637
 30
0.0
 11
9550.658398711734
 21
-17085.93047057637
 31
0.0
  0
LINE
  5
520
330
6C
100
AcDbEntity
  8
0
  6
Continuous
 62
     7
100
AcDbLine
 10
7137.658398711763
 20
-17085.93047057637
 30
0.0
 11
8137.658398711733
 21
-17085.93047057637
 31
0.0
  0
TEXT
  5
521
330
6C
100
AcDbEntity
  8
0
  6
Continuous
 62
     4
100
AcDbText
 10
9550.658398711734
 20
-16985.93047057639
 30
0.0
 40
250.0
  1
 GL
 11
9550.658398711734
 21
-16860.93047057639
 31
0.0
100
AcDbText
 73
     2
  0
LINE
  5
522
330
6C
100
AcDbEntity
  8
SUNPO
  6
Continuous
 62
     1
100
AcDbLine
 10
3046.972899052969
 20
-5835.93047057635
 30
0.0
 11
3046.972899052955
 21
-7010.930470576295
 31
0.0
  0
LINE
  5
523
330
6C
100
AcDbEntity
  8
SUNPO
  6
Continuous
 62
     1
100
AcDbLine
 10
1171.972899053042
 20
-5835.93047057635
 30
0.0
 11
1171.972899053027
 21
-7010.930470576295
 31
0.0
  0
LINE
  5
524
330
6C
100
AcDbEntity
  8
SUNPO
  6
Continuous
 62
     1
100
AcDbLine
 10
3446.972899052955
 20
-6810.930470576295
 30
0.0
 11
4246.972899052955
 21
-6810.930470576295
 31
0.0
  0
TEXT
  5
525
330
6C
100
AcDbEntity
  8
SUNPO
  6
Continuous
 62
     4
100
AcDbText
 10
3535.788023386365
 20
-6707.320492263945
 30
0.0
 40
300.0
  1
750
 72
     1
 11
3850.906133622586
 21
-6707.320492263945
 31
0.0
100
AcDbText
  0
LINE
  5
526
330
6C
100
AcDbEntity
  8
SUNPO
  6
Continuous
 62
     1
100
AcDbLine
 10
1171.972899053042
 20
-6810.930470576295
 30
0.0
 11
3046.972899052969
 21
-6810.930470576325
 31
0.0
  0
LINE
  5
527
330
6C
100
AcDbEntity
  8
SUNPO
  6
Continuous
 62
     1
100
AcDbLine
 10
771.9728990530275
 20
-6810.930470576295
 30
0.0
 11
1171.972899053027
 21
-6810.930470576295
 31
0.0
  0
LINE
  5
528
330
6C
100
AcDbEntity
  8
SUNPO
  6
Continuous
 62
     1
100
AcDbLine
 10
1171.972899053027
 20
-6810.930470576295
 30
0.0
 11
971.9728990530274
 21
-6860.93047057631
 31
0.0
  0
LINE
  5
529
330
6C
100
AcDbEntity
  8
SUNPO
  6
Continuous
 62
     1
100
AcDbLine
 10
971.9728990530274
 20
-6760.930470576295
 30
0.0
 11
1171.972899053027
 21
-6810.930470576295
 31
0.0
  0
LINE
  5
52A
330
6C
100
AcDbEntity
  8
SUNPO
  6
Continuous
 62
     1
100
AcDbLine
 10
3046.972899052955
 20
-6810.930470576295
 30
0.0
 11
3446.972899052955
 21
-6810.930470576295
 31
0.0
  0
LINE
  5
52B
330
6C
100
AcDbEntity
  8
SUNPO
  6
Continuous
 62
     1
100
AcDbLine
 10
3046.972899052955
 20
-6810.930470576295
 30
0.0
 11
3246.972899052955
 21
-6760.930470576295
 31
0.0
  0
LINE
  5
52C
330
6C
100
AcDbEntity
  8
SUNPO
  6
Continuous
 62
     1
100
AcDbLine
 10
3246.972899052955
 20
-6860.93047057631
 30
0.0
 11
3046.972899052955
 21
-6810.930470576295
 31
0.0
  0
LINE
  5
52D
330
6C
100
AcDbEntity
  8
SUNPO
  6
Continuous
 62
     1
100
AcDbLine
 10
4783.972899052897
 20
-3460.930470576481
 30
0.0
 11
4733.972899052896
 21
-3660.930470576481
 31
0.0
  0
LINE
  5
52E
330
6C
100
AcDbEntity
  8
SUNPO
  6
Continuous
 62
     1
100
AcDbLine
 10
4833.972899052897
 20
-3660.930470576481
 30
0.0
 11
4783.972899052897
 21
-3460.930470576481
 31
0.0
  0
LINE
  5
52F
330
6C
100
AcDbEntity
  8
SUNPO
  6
Continuous
 62
     1
100
AcDbLine
 10
4783.972899052939
 20
-5335.930470576059
 30
0.0
 11
4783.972899052939
 21
-3460.930470576496
 31
0.0
  0
TEXT
  5
530
330
6C
100
AcDbEntity
  8
SUNPO
  6
Continuous
 62
     4
100
AcDbText
 10
4683.97289905294
 20
-4713.532441539788
 30
0.0
 40
300.0
  1
750
 50
90.0
 72
     1
 11
4683.97289905294
 21
-4398.414331303567
 31
0.0
100
AcDbText
 73
     1
  0
LINE
  5
531
330
6C
100
AcDbEntity
  8
SUNPO
  6
Continuous
 62
     1
100
AcDbLine
 10
3888.927979809494
 20
-5335.930470576364
 30
0.0
 11
4983.972899052984
 21
-5335.930470576364
 31
0.0
  0
LINE
  5
532
330
6C
100
AcDbEntity
  8
SUNPO
  6
Continuous
 62
     1
100
AcDbLine
 10
4783.972899052984
 20
-5335.930470576219
 30
0.0
 11
4733.972899052984
 21
-5535.930470576219
 31
0.0
  0
LINE
  5
533
330
6C
100
AcDbEntity
  8
SUNPO
  6
Continuous
 62
     1
100
AcDbLine
 10
4833.972899052984
 20
-5535.930470576219
 30
0.0
 11
4783.972899052984
 21
-5335.930470576219
 31
0.0
  0
LINE
  5
534
330
6C
100
AcDbEntity
  8
SUNPO
  6
Continuous
 62
     1
100
AcDbLine
 10
4733.972899052969
 20
-5135.930470576116
 30
0.0
 11
4783.972899052969
 21
-5335.930470576117
 31
0.0
  0
LINE
  5
535
330
6C
100
AcDbEntity
  8
SUNPO
  6
Continuous
 62
     1
100
AcDbLine
 10
4783.972899052969
 20
-5335.930470576117
 30
0.0
 11
4833.97289905297
 21
-5135.930470576116
 31
0.0
  0
LINE
  5
536
330
6C
100
AcDbEntity
  8
SUNPO
  6
Continuous
 62
     1
100
AcDbLine
 10
3888.927979809494
 20
-3460.930470576481
 30
0.0
 11
4983.972899052911
 21
-3460.930470576481
 31
0.0
  0
TEXT
  5
537
330
6C
100
AcDbEntity
  8
MOJI
  6
Continuous
 62
     4
100
AcDbText
 10
12000.22857542951
 20
-9230.000000000023
 30
0.0
 40
300.0
  1
機体
100
AcDbText
  0
TEXT
  5
538
330
6C
100
AcDbEntity
  8
MOJI
  6
Continuous
 62
     4
100
AcDbText
 10
12000.22857542951
 20
-8630.000000000029
 30
0.0
 40
300.0
  1
ガラス
100
AcDbText
  0
TEXT
  5
539
330
6C
100
AcDbEntity
  8
MOJI
  6
Continuous
 62
     4
100
AcDbText
 10
12000.22857542951
 20
-8030.000000000029
 30
0.0
 40
300.0
  1
指針
100
AcDbText
  0
TEXT
  5
53A
330
6C
100
AcDbEntity
  8
MOJI
  6
Continuous
 62
     4
100
AcDbText
 10
12000.22857542951
 20
-7430.000000000029
 30
0.0
 40
300.0
  1
文字板
100
AcDbText
  0
TEXT
  5
53B
330
6C
100
AcDbEntity
  8
MOJI
  6
Continuous
 62
     4
100
AcDbText
 10
12000.22857542951
 20
-6830.00000000003
 30
0.0
 40
300.0
  1
ケース
100
AcDbText
  0
TEXT
  5
53C
330
6C
100
AcDbEntity
  8
MOJI
  6
Continuous
 62
     4
100
AcDbText
 10
12000.22857542951
 20
-6230.000000000029
 30
0.0
 40
300.0
  1
時計部
100
AcDbText
  0
LINE
  5
53D
330
6C
100
AcDbEntity
  8
SEN
  6
Continuous
 62
     2
100
AcDbLine
 10
23500.2285754295
 20
-5700.000000000029
 30
0.0
 11
23500.22857542946
 21
-23700.00000000002
 31
0.0
  0
TEXT
  5
53E
330
6C
100
AcDbEntity
  8
MOJI
  6
Continuous
 62
     4
100
AcDbText
 10
16000.2285754295
 20
-7430.000000000029
 30
0.0
 40
300.0
  1
アルミニウム 白色　文字\U+2026黒色
100
AcDbText
  0
TEXT
  5
53F
330
6C
100
AcDbEntity
  8
MOJI
  6
Continuous
 62
     4
100
AcDbText
 10
16000.2285754295
 20
-6830.00000000003
 30
0.0
 40
300.0
  1
鋼板製 チョコレート色
100
AcDbText
  0
TEXT
  5
540
330
6C
100
AcDbEntity
  8
MOJI
  6
Continuous
 62
     4
100
AcDbText
 10
16000.2285754295
 20
-8630.000000000029
 30
0.0
 40
300.0
  1
透明 強化ガラス t4
100
AcDbText
  0
TEXT
  5
541
330
6C
100
AcDbEntity
  8
MOJI
  6
Continuous
 62
     4
100
AcDbText
 10
16000.2285754295
 20
-8030.000000000029
 30
0.0
 40
300.0
  1
アルミニウム 黒色
100
AcDbText
  0
TEXT
  5
542
330
6C
100
AcDbEntity
  8
MOJI
  6
Continuous
 62
     4
100
AcDbText
 10
16000.2285754295
 20
-9230.000000000023
 30
0.0
 40
300.0
  1
DC3.6V 有極30秒運針
100
AcDbText
  0
LINE
  5
543
330
6C
100
AcDbEntity
  8
SEN
  6
Continuous
 62
     2
100
AcDbLine
 10
15500.22857542951
 20
-6300.000000000029
 30
0.0
 11
15500.2285754295
 21
-9900.000000000023
 31
0.0
  0
LINE
  5
544
330
6C
100
AcDbEntity
  8
4
100
AcDbLine
 10
1919.472899053042
 20
-14673.43047057636
 30
0.0
 11
2299.472899053042
 21
-14673.43047057636
 31
0.0
  0
LINE
  5
545
330
6C
100
AcDbEntity
  8
4
100
AcDbLine
 10
1919.472899053042
 20
-15998.43047057636
 30
0.0
 11
2299.472899053042
 21
-15998.43047057636
 31
0.0
  0
LINE
  5
546
330
6C
100
AcDbEntity
  8
4
100
AcDbLine
 10
1919.472899053042
 20
-15998.43047057636
 30
0.0
 11
1919.472899053042
 21
-14673.43047057636
 31
0.0
  0
LINE
  5
547
330
6C
100
AcDbEntity
  8
4
100
AcDbLine
 10
2299.472899053042
 20
-15998.43047057636
 30
0.0
 11
2299.472899053042
 21
-14673.43047057636
 31
0.0
  0
LINE
  5
548
330
6C
100
AcDbEntity
  8
4
100
AcDbLine
 10
830.0148982711835
 20
-5335.930470576364
 30
0.0
 11
3388.930899834901
 21
-5335.930470576364
 31
0.0
  0
LINE
  5
549
330
6C
100
AcDbEntity
  8
4
100
AcDbLine
 10
830.0148982711835
 20
-3460.930470576364
 30
0.0
 11
3388.930899834901
 21
-3460.930470576364
 31
0.0
  0
LINE
  5
54A
330
6C
100
AcDbEntity
  8
4
100
AcDbLine
 10
830.0148982711835
 20
-5335.930470576364
 30
0.0
 11
830.0148982711835
 21
-3460.930470576364
 31
0.0
  0
LINE
  5
54B
330
6C
100
AcDbEntity
  8
4
100
AcDbLine
 10
959.472899053042
 20
-5335.930470576364
 30
0.0
 11
959.472899053042
 21
-3460.930470576364
 31
0.0
  0
LINE
  5
54C
330
6C
100
AcDbEntity
  8
4
100
AcDbLine
 10
2021.972899053042
 20
-3453.430470576364
 30
0.0
 11
2196.972899053042
 21
-3453.430470576364
 31
0.0
  0
LINE
  5
54D
330
6C
100
AcDbEntity
  8
4
100
AcDbLine
 10
1881.972899053042
 20
-5833.430470576379
 30
0.0
 11
2336.972899053042
 21
-5833.430470576379
 31
0.0
  0
LINE
  5
54E
330
6C
100
AcDbEntity
  8
4
100
AcDbLine
 10
1696.972899053042
 20
-5358.430470576379
 30
0.0
 11
2521.972899053042
 21
-5358.430470576379
 31
0.0
  0
CIRCLE
  5
54F
330
6C
100
AcDbEntity
  8
0
  6
Continuous
 62
     1
100
AcDbCircle
 10
2109.147899053031
 20
-3641.380470576376
 30
0.0
 40
11.225
  0
LINE
  5
550
330
6C
100
AcDbEntity
  8
0
  6
Continuous
 62
     1
100
AcDbLine
 10
2073.022899053031
 20
-3865.580470576373
 30
0.0
 11
2218.847899053042
 21
-3865.580470576373
 31
0.0
  0
ARC
  5
551
330
6C
100
AcDbEntity
  8
0
  6
Continuous
 62
     1
100
AcDbCircle
 10
2145.222899053042
 20
-3789.855470576367
 30
0.0
 40
92.55
100
AcDbArc
 50
54.52713233738702
 51
147.0267361879695
  0
ARC
  5
552
330
6C
100
AcDbEntity
  8
0
  6
Continuous
 62
     1
100
AcDbCircle
 10
2145.222899053042
 20
-3789.855470576367
 30
0.0
 40
61.70000000000001
100
AcDbArc
 50
54.52445046291931
 51
147.0179669560562
  0
LINE
  5
553
330
6C
100
AcDbEntity
  8
0
  6
Continuous
 62
     1
100
AcDbLine
 10
2105.772899053031
 20
-3809.205470576373
 30
0.0
 11
2179.372899053036
 21
-3768.080470576359
 31
0.0
  0
CIRCLE
  5
554
330
6C
100
AcDbEntity
  8
0
  6
Continuous
 62
     1
100
AcDbCircle
 10
2109.472899053042
 20
-4398.430470576363
 30
0.0
 40
16.375
  0
LINE
  5
555
330
6C
100
AcDbEntity
  8
0
  6
Continuous
 62
     1
100
AcDbLine
 10
2104.947899053019
 20
-4440.680470576379
 30
0.0
 11
2217.52289905303
 21
-4511.305470576378
 31
0.0
  0
CIRCLE
  5
556
330
6C
100
AcDbEntity
  8
0
  6
Continuous
 62
     1
100
AcDbCircle
 10
2109.147899053031
 20
-5156.555470576378
 30
0.0
 40
11.225
  0
ARC
  5
557
330
6C
100
AcDbEntity
  8
0
  6
Continuous
 62
     1
100
AcDbCircle
 10
2115.422899053025
 20
-5135.005470576376
 30
0.0
 40
169.55
100
AcDbArc
 50
64.65543148102312
 51
96.96890886412893
  0
ARC
  5
558
330
6C
100
AcDbEntity
  8
0
  6
Continuous
 62
     1
100
AcDbCircle
 10
2101.397899053031
 20
-5155.655470576363
 30
0.0
 40
224.35
100
AcDbArc
 50
62.55275433609761
 51
91.28976732793075
  0
ARC
  5
559
330
6C
100
AcDbEntity
  8
0
  6
Continuous
 62
     1
100
AcDbCircle
 10
2107.847899053028
 20
-4912.605470576375
 30
0.0
 40
187.175
100
AcDbArc
 50
264.6774857619577
 51
292.6740252970346
  0
ARC
  5
55A
330
6C
100
AcDbEntity
  8
0
  6
Continuous
 62
     1
100
AcDbCircle
 10
2120.697899053048
 20
-5250.505470576376
 30
0.0
 40
258.075
100
AcDbArc
 50
80.01195945558336
 51
105.1670141051833
  0
ARC
  5
55B
330
6C
100
AcDbEntity
  8
0
  6
Continuous
 62
     1
100
AcDbCircle
 10
2109.472899053042
 20
-5123.280470576371
 30
0.0
 40
102.025
100
AcDbArc
 50
67.06889484297374
 51
112.9181651869025
  0
ARC
  5
55C
330
6C
100
AcDbEntity
  8
0
  6
Continuous
 62
     1
100
AcDbCircle
 10
2109.472899053042
 20
-4964.105470576374
 30
0.0
 40
102.025
100
AcDbArc
 50
247.0818348130976
 51
292.9311051570262
  0
LINE
  5
55D
330
6C
100
AcDbEntity
  8
0
  6
Continuous
 62
     1
100
AcDbLine
 10
1719.547899053039
 20
-4148.780470576363
 30
0.0
 11
2114.147899053031
 21
-4357.680470576378
 31
0.0
  0
LINE
  5
55E
330
6C
100
AcDbEntity
  8
0
  6
Continuous
 62
     1
100
AcDbLine
 10
2023.747899053036
 20
-4524.830470576373
 30
0.0
 11
2655.722899053043
 21
-3869.880470576376
 31
0.0
  0
LINE
  5
55F
330
6C
100
AcDbEntity
  8
0
  6
Continuous
 62
     1
100
AcDbLine
 10
1983.072899053018
 20
-4484.155470576371
 30
0.0
 11
2638.022899053031
 21
-3852.180470576364
 31
0.0
  0
LINE
  5
560
330
6C
100
AcDbEntity
  8
4
100
AcDbLine
 10
1279.472899053042
 20
-3568.430470576365
 30
0.0
 11
2939.472899053042
 21
-3568.430470576365
 31
0.0
  0
LINE
  5
561
330
6C
100
AcDbEntity
  8
4
100
AcDbLine
 10
1279.472899053042
 20
-5228.430470576364
 30
0.0
 11
2939.472899053042
 21
-5228.430470576364
 31
0.0
  0
CIRCLE
  5
562
330
6C
100
AcDbEntity
  8
0
  6
Continuous
 62
     1
100
AcDbCircle
 10
1453.047899053054
 20
-4777.780470576369
 30
0.0
 40
11.225
  0
ARC
  5
563
330
6C
100
AcDbEntity
  8
0
  6
Continuous
 62
     1
100
AcDbCircle
 10
1576.622899053036
 20
-4641.080470576373
 30
0.0
 40
138.775
100
AcDbArc
 50
238.5992847134172
 51
301.4007152865828
  0
LINE
  5
564
330
6C
100
AcDbEntity
  8
4
100
AcDbLine
 10
1171.972899053042
 20
-5335.930470576364
 30
0.0
 11
1171.972899053042
 21
-3460.930470576364
 31
0.0
  0
LINE
  5
565
330
6C
100
AcDbEntity
  8
4
100
AcDbLine
 10
1084.472899053042
 20
-5335.930470576364
 30
0.0
 11
1084.472899053042
 21
-3460.930470576364
 31
0.0
  0
LINE
  5
566
330
6C
100
AcDbEntity
  8
4
100
AcDbLine
 10
1279.472899053042
 20
-5228.430470576364
 30
0.0
 11
1279.472899053042
 21
-3568.430470576365
 31
0.0
  0
CIRCLE
  5
567
330
6C
100
AcDbEntity
  8
0
  6
Continuous
 62
     1
100
AcDbCircle
 10
1545.722899053042
 20
-4906.330470576373
 30
0.0
 40
7.0
  0
CIRCLE
  5
568
330
6C
100
AcDbEntity
  8
0
  6
Continuous
 62
     1
100
AcDbCircle
 10
1495.747899053036
 20
-4844.680470576364
 30
0.0
 40
7.0
  0
LINE
  5
569
330
6C
100
AcDbEntity
  8
4
100
AcDbLine
 10
1731.972899053042
 20
-5395.930470576379
 30
0.0
 11
1844.472899053042
 21
-5658.430470576379
 31
0.0
  0
LINE
  5
56A
330
6C
100
AcDbEntity
  8
4
100
AcDbLine
 10
1881.972899053042
 20
-5833.430470576379
 30
0.0
 11
1881.972899053042
 21
-5358.430470576379
 31
0.0
  0
LINE
  5
56B
330
6C
100
AcDbEntity
  8
4
100
AcDbLine
 10
1844.472899053042
 20
-5658.430470576379
 30
0.0
 11
1881.972899053042
 21
-5658.430470576379
 31
0.0
  0
LINE
  5
56C
330
6C
100
AcDbEntity
  8
0
  6
Continuous
 62
     1
100
AcDbLine
 10
1722.447899053018
 20
-4847.15547057637
 30
0.0
 11
1896.347899053042
 21
-4847.15547057637
 31
0.0
  0
LINE
  5
56D
330
6C
100
AcDbEntity
  8
0
  6
Continuous
 62
     1
100
AcDbLine
 10
1722.447899053018
 20
-4878.005470576376
 30
0.0
 11
1851.472899053042
 21
-4878.005470576376
 31
0.0
  0
LINE
  5
56E
330
6C
100
AcDbEntity
  8
0
  6
Continuous
 62
     1
100
AcDbLine
 10
1806.597899053027
 20
-5004.205470576373
 30
0.0
 11
1896.347899053042
 21
-4878.005470576376
 31
0.0
  0
LINE
  5
56F
330
6C
100
AcDbEntity
  8
0
  6
Continuous
 62
     1
100
AcDbLine
 10
1761.722899053042
 20
-5004.205470576373
 30
0.0
 11
1851.472899053042
 21
-4878.005470576376
 31
0.0
  0
LINE
  5
570
330
6C
100
AcDbEntity
  8
4
100
AcDbLine
 10
1696.972899053042
 20
-5358.430470576379
 30
0.0
 11
1696.972899053042
 21
-5335.930470576364
 31
0.0
  0
LINE
  5
571
330
6C
100
AcDbEntity
  8
4
100
AcDbLine
 10
1731.972899053042
 20
-5395.930470576379
 30
0.0
 11
1731.972899053042
 21
-5358.430470576379
 31
0.0
  0
CIRCLE
  5
572
330
6C
100
AcDbEntity
  8
0
  6
Continuous
 62
     1
100
AcDbCircle
 10
1730.372899053036
 20
-5055.080470576373
 30
0.0
 40
11.225
  0
CIRCLE
  5
573
330
6C
100
AcDbEntity
  8
0
  6
Continuous
 62
     1
100
AcDbCircle
 10
1663.497899053036
 20
-5012.330470576372
 30
0.0
 40
7.0
  0
CIRCLE
  5
574
330
6C
100
AcDbEntity
  8
0
  6
Continuous
 62
     1
100
AcDbCircle
 10
1601.797899053039
 20
-4962.480470576374
 30
0.0
 40
7.0
  0
CIRCLE
  5
575
330
6C
100
AcDbEntity
  8
0
  6
Continuous
 62
     1
100
AcDbCircle
 10
1800.747899053036
 20
-5091.65547057637
 30
0.0
 40
7.0
  0
LINE
  5
576
330
6C
100
AcDbEntity
  8
0
  6
Continuous
 62
     1
100
AcDbLine
 10
1722.447899053018
 20
-4878.005470576376
 30
0.0
 11
1722.447899053018
 21
-4847.15547057637
 31
0.0
  0
LINE
  5
577
330
6C
100
AcDbEntity
  8
0
  6
Continuous
 62
     1
100
AcDbLine
 10
1761.722899053042
 20
-5004.205470576373
 30
0.0
 11
1806.597899053027
 21
-5004.205470576373
 31
0.0
  0
CIRCLE
  5
578
330
6C
100
AcDbEntity
  8
0
  6
Continuous
 62
     1
100
AcDbCircle
 10
1874.847899053042
 20
-5120.080470576373
 30
0.0
 40
7.0
  0
LINE
  5
579
330
6C
100
AcDbEntity
  8
0
  6
Continuous
 62
     1
100
AcDbLine
 10
1896.347899053042
 20
-4878.005470576376
 30
0.0
 11
1896.347899053042
 21
-4847.15547057637
 31
0.0
  0
CIRCLE
  5
57A
330
6C
100
AcDbEntity
  8
0
  6
Continuous
 62
     1
100
AcDbCircle
 10
1951.52289905303
 20
-5140.680470576379
 30
0.0
 40
7.0
  0
ARC
  5
57B
330
6C
100
AcDbEntity
  8
0
  6
Continuous
 62
     1
100
AcDbCircle
 10
2075.822899053048
 20
-5043.705470576373
 30
0.0
 40
15.425
100
AcDbArc
 50
112.8962090089523
 51
247.0678995621371
  0
LINE
  5
57C
330
6C
100
AcDbEntity
  8
0
  6
Continuous
 62
     1
100
AcDbLine
 10
2053.397899053031
 20
-5001.355470576374
 30
0.0
 11
2053.397899053031
 21
-5000.955470576373
 31
0.0
  0
LINE
  5
57D
330
6C
100
AcDbEntity
  8
0
  6
Continuous
 62
     1
100
AcDbLine
 10
2053.172899053025
 20
-5001.40547057637
 30
0.0
 11
2053.397899053031
 21
-5001.40547057637
 31
0.0
  0
ARC
  5
57E
330
6C
100
AcDbEntity
  8
0
  6
Continuous
 62
     1
100
AcDbCircle
 10
2109.472899053042
 20
-5026.630470576361
 30
0.0
 40
61.70000000000001
100
AcDbArc
 50
103.7097111662502
 51
155.8654167473003
  0
ARC
  5
57F
330
6C
100
AcDbEntity
  8
0
  6
Continuous
 62
     1
100
AcDbCircle
 10
2098.27289905303
 20
-5015.430470576379
 30
0.0
 40
84.12500000000001
100
AcDbArc
 50
91.3116278102267
 51
264.6744031978514
  0
CIRCLE
  5
580
330
6C
100
AcDbEntity
  8
0
  6
Continuous
 62
     1
100
AcDbCircle
 10
2029.897899053031
 20
-5152.955470576372
 30
0.0
 40
7.0
  0
ARC
  5
581
330
6C
100
AcDbEntity
  8
0
  6
Continuous
 62
     1
100
AcDbCircle
 10
1576.622899053036
 20
-4773.28047057637
 30
0.0
 40
161.7
100
AcDbArc
 50
68.99493098627171
 51
111.0050690137283
  0
ARC
  5
582
330
6C
100
AcDbEntity
  8
0
  6
Continuous
 62
     1
100
AcDbCircle
 10
1576.622899053036
 20
-4755.78047057637
 30
0.0
 40
116.175
100
AcDbArc
 50
71.29203046890293
 51
108.707969531097
  0
ARC
  5
583
330
6C
100
AcDbEntity
  8
0
  6
Continuous
 62
     1
100
AcDbCircle
 10
1576.622899053036
 20
-4557.105470576374
 30
0.0
 40
116.175
100
AcDbArc
 50
251.2920304689029
 51
288.7079695310971
  0
ARC
  5
584
330
6C
100
AcDbEntity
  8
0
  6
Continuous
 62
     1
100
AcDbCircle
 10
1576.622899053036
 20
-4842.505470576377
 30
0.0
 40
141.175
100
AcDbArc
 50
72.93906443269434
 51
107.0609355673056
  0
ARC
  5
585
330
6C
100
AcDbEntity
  8
0
  6
Continuous
 62
     1
100
AcDbCircle
 10
1520.52289905303
 20
-4398.655470576385
 30
0.0
 40
84.12500000000001
100
AcDbArc
 50
263.6165462908228
 51
76.98877906812048
  0
ARC
  5
586
330
6C
100
AcDbEntity
  8
0
  6
Continuous
 62
     1
100
AcDbCircle
 10
1576.622899053036
 20
-4605.005470576376
 30
0.0
 40
141.175
100
AcDbArc
 50
252.9390644326944
 51
287.0609355673057
  0
CIRCLE
  5
587
330
6C
100
AcDbEntity
  8
0
  6
Continuous
 62
     1
100
AcDbCircle
 10
1638.322899053048
 20
-4095.530470576385
 30
0.0
 40
78.525
  0
ARC
  5
588
330
6C
100
AcDbEntity
  8
0
  6
Continuous
 62
     1
100
AcDbCircle
 10
1502.52289905303
 20
-4448.005470576376
 30
0.0
 40
102.025
100
AcDbArc
 50
59.3905265728711
 51
105.2464896349352
  0
ARC
  5
589
330
6C
100
AcDbEntity
  8
0
  6
Continuous
 62
     1
100
AcDbCircle
 10
1465.89789905303
 20
-4362.980470576374
 30
0.0
 40
47.675
100
AcDbArc
 50
110.9748974319047
 51
252.3135395336121
  0
ARC
  5
58A
330
6C
100
AcDbEntity
  8
0
  6
Continuous
 62
     1
100
AcDbCircle
 10
1529.622899053036
 20
-4162.680470576378
 30
0.0
 40
258.075
100
AcDbArc
 50
252.3445852662933
 51
277.5029531817161
  0
ARC
  5
58B
330
6C
100
AcDbEntity
  8
0
  6
Continuous
 62
     1
100
AcDbCircle
 10
1519.472899053042
 20
-4277.830470576373
 30
0.0
 40
169.55
100
AcDbArc
 50
236.9917139774703
 51
269.2989366994301
  0
ARC
  5
58C
330
6C
100
AcDbEntity
  8
0
  6
Continuous
 62
     1
100
AcDbCircle
 10
1536.122899053036
 20
-4259.28047057637
 30
0.0
 40
224.35
100
AcDbArc
 50
234.8861119083016
 51
263.6146823726431
  0
CIRCLE
  5
58D
330
6C
100
AcDbEntity
  8
0
  6
Continuous
 62
     1
100
AcDbCircle
 10
1388.047899053054
 20
-4633.330470576373
 30
0.0
 40
7.0
  0
CIRCLE
  5
58E
330
6C
100
AcDbEntity
  8
0
  6
Continuous
 62
     1
100
AcDbCircle
 10
1367.522899053059
 20
-4556.655470576369
 30
0.0
 40
7.0
  0
LINE
  5
58F
330
6C
100
AcDbEntity
  8
0
  6
Continuous
 62
     1
100
AcDbLine
 10
1407.072899053048
 20
-4442.805470576364
 30
0.0
 11
1427.097899053042
 21
-4420.030470576363
 31
0.0
  0
CIRCLE
  5
590
330
6C
100
AcDbEntity
  8
0
  6
Continuous
 62
     1
100
AcDbCircle
 10
1351.597899053042
 20
-4398.980470576375
 30
0.0
 40
11.225
  0
CIRCLE
  5
591
330
6C
100
AcDbEntity
  8
0
  6
Continuous
 62
     1
100
AcDbCircle
 10
1355.072899053048
 20
-4478.255470576375
 30
0.0
 40
7.0
  0
CIRCLE
  5
592
330
6C
100
AcDbEntity
  8
0
  6
Continuous
 62
     1
100
AcDbCircle
 10
1416.547899053024
 20
-4707.330470576373
 30
0.0
 40
7.0
  0
ARC
  5
593
330
6C
100
AcDbEntity
  8
0
  6
Continuous
 62
     1
100
AcDbCircle
 10
1542.972899053042
 20
-4656.455470576373
 30
0.0
 40
11.225
100
AcDbArc
 50
108.6359858209287
 51
251.3232982678321
  0
ARC
  5
594
330
6C
100
AcDbEntity
  8
0
  6
Continuous
 62
     1
100
AcDbCircle
 10
1510.89789905303
 20
-4386.03047057637
 30
0.0
 40
61.70000000000001
100
AcDbArc
 50
276.0454497856311
 51
328.1841171965431
  0
LINE
  5
595
330
6C
100
AcDbEntity
  8
0
  6
Continuous
 62
     1
100
AcDbLine
 10
1563.047899053039
 20
-4418.955470576373
 30
0.0
 11
1563.097899053027
 21
-4418.630470576376
 31
0.0
  0
LINE
  5
596
330
6C
100
AcDbEntity
  8
0
  6
Continuous
 62
     1
100
AcDbLine
 10
1563.097899053027
 20
-4418.555470576364
 30
0.0
 11
1563.322899053048
 21
-4418.555470576364
 31
0.0
  0
ARC
  5
597
330
6C
100
AcDbEntity
  8
0
  6
Continuous
 62
     1
100
AcDbCircle
 10
1546.497899053036
 20
-4373.630470576375
 30
0.0
 40
15.425
100
AcDbArc
 50
285.3117590546147
 51
59.30523576156993
  0
ARC
  5
598
330
6C
100
AcDbEntity
  8
0
  6
Continuous
 62
     1
100
AcDbCircle
 10
1479.822899053048
 20
-4364.655470576362
 30
0.0
 40
15.425
100
AcDbArc
 50
105.3117590546146
 51
239.3052357615699
  0
ARC
  5
599
330
6C
100
AcDbEntity
  8
0
  6
Continuous
 62
     1
100
AcDbCircle
 10
1531.747899053036
 20
-4656.455470576373
 30
0.0
 40
36.45
100
AcDbArc
 50
110.9783764623416
 51
232.0699176476486
  0
ARC
  5
59A
330
6C
100
AcDbEntity
  8
0
  6
Continuous
 62
     1
100
AcDbCircle
 10
1523.797899053039
 20
-4290.280470576369
 30
0.0
 40
102.025
100
AcDbArc
 50
239.3905265728711
 51
285.2464896349352
  0
ARC
  5
59B
330
6C
100
AcDbEntity
  8
0
  6
Continuous
 62
     1
100
AcDbCircle
 10
1526.14789905303
 20
-4723.755470576376
 30
0.0
 40
42.075
100
AcDbArc
 50
113.5923082430205
 51
238.6092384183515
  0
ARC
  5
59C
330
6C
100
AcDbEntity
  8
0
  6
Continuous
 62
     1
100
AcDbCircle
 10
1540.172899053039
 20
-4723.755470576376
 30
0.0
 40
16.825
100
AcDbArc
 50
107.0403832050565
 51
252.9596167949434
  0
CIRCLE
  5
59D
330
6C
100
AcDbEntity
  8
0
  6
Continuous
 62
     1
100
AcDbCircle
 10
1453.047899053054
 20
-4020.205470576373
 30
0.0
 40
11.225
  0
ARC
  5
59E
330
6C
100
AcDbEntity
  8
0
  6
Continuous
 62
     1
100
AcDbCircle
 10
1497.322899053048
 20
-4499.28047057637
 30
0.0
 40
187.175
100
AcDbArc
 50
77.00423692578088
 51
105.0107885016368
  0
CIRCLE
  5
59F
330
6C
100
AcDbEntity
  8
0
  6
Continuous
 62
     1
100
AcDbCircle
 10
1367.472899053042
 20
-4241.380470576376
 30
0.0
 40
7.0
  0
CIRCLE
  5
5A0
330
6C
100
AcDbEntity
  8
0
  6
Continuous
 62
     1
100
AcDbCircle
 10
1388.047899053054
 20
-4164.705470576373
 30
0.0
 40
7.0
  0
CIRCLE
  5
5A1
330
6C
100
AcDbEntity
  8
0
  6
Continuous
 62
     1
100
AcDbCircle
 10
1416.497899053036
 20
-4090.605470576374
 30
0.0
 40
7.0
  0
CIRCLE
  5
5A2
330
6C
100
AcDbEntity
  8
0
  6
Continuous
 62
     1
100
AcDbCircle
 10
1355.172899053039
 20
-4319.730470576367
 30
0.0
 40
7.0
  0
LINE
  5
5A3
330
6C
100
AcDbEntity
  8
0
  6
Continuous
 62
     1
100
AcDbLine
 10
1509.697899053048
 20
-4174.080470576373
 30
0.0
 11
1509.697899053048
 21
-4056.280470576363
 31
0.0
  0
LINE
  5
5A4
330
6C
100
AcDbEntity
  8
0
  6
Continuous
 62
     1
100
AcDbLine
 10
1509.322899053018
 20
-4174.080470576373
 30
0.0
 11
1537.347899053042
 21
-4174.080470576373
 31
0.0
  0
LINE
  5
5A5
330
6C
100
AcDbEntity
  8
0
  6
Continuous
 62
     1
100
AcDbLine
 10
1537.347899053042
 20
-4174.080470576373
 30
0.0
 11
1537.347899053042
 21
-4011.405470576369
 31
0.0
  0
LINE
  5
5A6
330
6C
100
AcDbEntity
  8
0
  6
Continuous
 62
     1
100
AcDbLine
 10
1514.922899053039
 20
-4011.405470576369
 30
0.0
 11
1537.347899053042
 21
-4011.405470576369
 31
0.0
  0
LINE
  5
5A7
330
6C
100
AcDbEntity
  8
0
  6
Continuous
 62
     1
100
AcDbLine
 10
1492.872899053036
 20
-4055.655470576363
 30
0.0
 11
1492.872899053036
 21
-4033.230470576367
 31
0.0
  0
CIRCLE
  5
5A8
330
6C
100
AcDbEntity
  8
0
  6
Continuous
 62
     1
100
AcDbCircle
 10
1495.797899053039
 20
-3953.355470576375
 30
0.0
 40
7.0
  0
LINE
  5
5A9
330
6C
100
AcDbEntity
  8
0
  6
Continuous
 62
     1
100
AcDbLine
 10
1492.872899053036
 20
-4056.280470576363
 30
0.0
 11
1509.697899053048
 21
-4056.280470576363
 31
0.0
  0
ARC
  5
5AA
330
6C
100
AcDbEntity
  8
0
  6
Continuous
 62
     1
100
AcDbCircle
 10
1476.39789905303
 20
-3994.53047057637
 30
0.0
 40
42.075
100
AcDbArc
 50
293.0599683568797
 51
336.3452710186964
  0
CIRCLE
  5
5AB
330
6C
100
AcDbEntity
  8
0
  6
Continuous
 62
     1
100
AcDbCircle
 10
1545.672899053024
 20
-3891.65547057637
 30
0.0
 40
7.0
  0
LINE
  5
5AC
330
6C
100
AcDbEntity
  8
4
100
AcDbLine
 10
1390.722899053042
 20
-3445.930470576364
 30
0.0
 11
1578.222899053042
 21
-3445.930470576364
 31
0.0
  0
LINE
  5
5AD
330
6C
100
AcDbEntity
  8
4
100
AcDbLine
 10
1390.722899053042
 20
-3455.930470576364
 30
0.0
 11
1578.222899053042
 21
-3455.930470576364
 31
0.0
  0
LINE
  5
5AE
330
6C
100
AcDbEntity
  8
4
100
AcDbLine
 10
1453.222899053042
 20
-3455.930470576364
 30
0.0
 11
1453.222899053042
 21
-3445.930470576364
 31
0.0
  0
LINE
  5
5AF
330
6C
100
AcDbEntity
  8
4
100
AcDbLine
 10
1390.722899053042
 20
-3460.930470576364
 30
0.0
 11
1390.722899053042
 21
-3455.930470576364
 31
0.0
  0
LINE
  5
5B0
330
6C
100
AcDbEntity
  8
4
100
AcDbLine
 10
1390.722899053042
 20
-3455.930470576364
 30
0.0
 11
1390.722899053042
 21
-3445.930470576364
 31
0.0
  0
LINE
  5
5B1
330
6C
100
AcDbEntity
  8
4
100
AcDbLine
 10
1578.222899053042
 20
-3460.930470576364
 30
0.0
 11
1578.222899053042
 21
-3455.930470576364
 31
0.0
  0
LINE
  5
5B2
330
6C
100
AcDbEntity
  8
4
100
AcDbLine
 10
1578.222899053042
 20
-3455.930470576364
 30
0.0
 11
1578.222899053042
 21
-3445.930470576364
 31
0.0
  0
LINE
  5
5B3
330
6C
100
AcDbEntity
  8
4
100
AcDbLine
 10
1515.722899053042
 20
-3455.930470576364
 30
0.0
 11
1515.722899053042
 21
-3445.930470576364
 31
0.0
  0
LINE
  5
5B4
330
6C
100
AcDbEntity
  8
0
  6
Continuous
 62
     1
100
AcDbLine
 10
1868.697899053019
 20
-3944.105470576375
 30
0.0
 11
1868.697899053019
 21
-3826.305470576379
 31
0.0
  0
LINE
  5
5B5
330
6C
100
AcDbEntity
  8
0
  6
Continuous
 62
     1
100
AcDbLine
 10
1896.347899053042
 20
-3944.105470576375
 30
0.0
 11
1896.347899053042
 21
-3781.430470576379
 31
0.0
  0
LINE
  5
5B6
330
6C
100
AcDbEntity
  8
0
  6
Continuous
 62
     1
100
AcDbLine
 10
1728.447899053019
 20
-3944.105470576375
 30
0.0
 11
1728.447899053019
 21
-3826.305470576379
 31
0.0
  0
LINE
  5
5B7
330
6C
100
AcDbEntity
  8
0
  6
Continuous
 62
     1
100
AcDbLine
 10
1756.122899053036
 20
-3944.105470576375
 30
0.0
 11
1756.122899053036
 21
-3781.430470576379
 31
0.0
  0
LINE
  5
5B8
330
6C
100
AcDbEntity
  8
0
  6
Continuous
 62
     1
100
AcDbLine
 10
1698.297899053039
 20
-4185.580470576373
 30
0.0
 11
2058.39789905303
 21
-4411.480470576374
 31
0.0
  0
ARC
  5
5B9
330
6C
100
AcDbEntity
  8
0
  6
Continuous
 62
     1
100
AcDbCircle
 10
1610.27289905303
 20
-4656.455470576373
 30
0.0
 40
11.225
100
AcDbArc
 50
288.6767017321679
 51
71.36401417907132
  0
ARC
  5
5BA
330
6C
100
AcDbEntity
  8
0
  6
Continuous
 62
     1
100
AcDbCircle
 10
1621.497899053036
 20
-4656.455470576373
 30
0.0
 40
36.45
100
AcDbArc
 50
307.9300823523514
 51
69.02162353765831
  0
ARC
  5
5BB
330
6C
100
AcDbEntity
  8
0
  6
Continuous
 62
     1
100
AcDbCircle
 10
1627.097899053027
 20
-4723.755470576376
 30
0.0
 40
42.075
100
AcDbArc
 50
301.3907615816485
 51
66.40769175697949
  0
ARC
  5
5BC
330
6C
100
AcDbEntity
  8
0
  6
Continuous
 62
     1
100
AcDbCircle
 10
1613.072899053018
 20
-4723.755470576376
 30
0.0
 40
16.825
100
AcDbArc
 50
287.0403832050566
 51
72.95961679494339
  0
LINE
  5
5BD
330
6C
100
AcDbEntity
  8
0
  6
Continuous
 62
     1
100
AcDbLine
 10
1698.297899053039
 20
-4185.580470576373
 30
0.0
 11
1719.547899053039
 21
-4148.780470576363
 31
0.0
  0
CIRCLE
  5
5BE
330
6C
100
AcDbEntity
  8
0
  6
Continuous
 62
     1
100
AcDbCircle
 10
1638.322899053048
 20
-4095.530470576385
 30
0.0
 40
44.87499999999999
  0
LINE
  5
5BF
330
6C
100
AcDbEntity
  8
0
  6
Continuous
 62
     1
100
AcDbLine
 10
1728.072899053019
 20
-3944.105470576375
 30
0.0
 11
1756.122899053036
 21
-3944.105470576375
 31
0.0
  0
LINE
  5
5C0
330
6C
100
AcDbEntity
  8
0
  6
Continuous
 62
     1
100
AcDbLine
 10
1983.072899053018
 20
-4484.155470576371
 30
0.0
 11
2023.747899053036
 21
-4524.830470576373
 31
0.0
  0
LINE
  5
5C1
330
6C
100
AcDbEntity
  8
0
  6
Continuous
 62
     1
100
AcDbLine
 10
1868.297899053039
 20
-3944.105470576375
 30
0.0
 11
1896.347899053042
 21
-3944.105470576375
 31
0.0
  0
CIRCLE
  5
5C2
330
6C
100
AcDbEntity
  8
0
  6
Continuous
 62
     1
100
AcDbCircle
 10
1730.372899053036
 20
-3742.905470576371
 30
0.0
 40
11.225
  0
LINE
  5
5C3
330
6C
100
AcDbEntity
  8
0
  6
Continuous
 62
     1
100
AcDbLine
 10
1711.622899053036
 20
-3826.305470576379
 30
0.0
 11
1728.447899053019
 21
-3826.305470576379
 31
0.0
  0
ARC
  5
5C4
330
6C
100
AcDbEntity
  8
0
  6
Continuous
 62
     1
100
AcDbCircle
 10
1695.14789905303
 20
-3764.555470576379
 30
0.0
 40
42.075
100
AcDbArc
 50
293.0599683568797
 51
336.3452710186964
  0
LINE
  5
5C5
330
6C
100
AcDbEntity
  8
0
  6
Continuous
 62
     1
100
AcDbLine
 10
1711.622899053036
 20
-3825.680470576379
 30
0.0
 11
1711.622899053036
 21
-3803.255470576376
 31
0.0
  0
CIRCLE
  5
5C6
330
6C
100
AcDbEntity
  8
0
  6
Continuous
 62
     1
100
AcDbCircle
 10
1663.447899053019
 20
-3785.580470576373
 30
0.0
 40
7.0
  0
CIRCLE
  5
5C7
330
6C
100
AcDbEntity
  8
0
  6
Continuous
 62
     1
100
AcDbCircle
 10
1601.797899053039
 20
-3835.555470576365
 30
0.0
 40
7.0
  0
CIRCLE
  5
5C8
330
6C
100
AcDbEntity
  8
0
  6
Continuous
 62
     1
100
AcDbCircle
 10
1800.822899053048
 20
-3706.380470576376
 30
0.0
 40
7.0
  0
LINE
  5
5C9
330
6C
100
AcDbEntity
  8
0
  6
Continuous
 62
     1
100
AcDbLine
 10
1733.672899053039
 20
-3781.430470576379
 30
0.0
 11
1756.122899053036
 21
-3781.430470576379
 31
0.0
  0
CIRCLE
  5
5CA
330
6C
100
AcDbEntity
  8
0
  6
Continuous
 62
     1
100
AcDbCircle
 10
1951.472899053042
 20
-3657.355470576375
 30
0.0
 40
7.0
  0
CIRCLE
  5
5CB
330
6C
100
AcDbEntity
  8
0
  6
Continuous
 62
     1
100
AcDbCircle
 10
1874.797899053039
 20
-3677.905470576371
 30
0.0
 40
7.0
  0
LINE
  5
5CC
330
6C
100
AcDbEntity
  8
0
  6
Continuous
 62
     1
100
AcDbLine
 10
1851.847899053028
 20
-3826.305470576379
 30
0.0
 11
1868.697899053019
 21
-3826.305470576379
 31
0.0
  0
LINE
  5
5CD
330
6C
100
AcDbEntity
  8
0
  6
Continuous
 62
     1
100
AcDbLine
 10
1851.847899053028
 20
-3825.680470576379
 30
0.0
 11
1851.847899053028
 21
-3803.255470576376
 31
0.0
  0
LINE
  5
5CE
330
6C
100
AcDbEntity
  8
0
  6
Continuous
 62
     1
100
AcDbLine
 10
1873.89789905303
 20
-3781.430470576379
 30
0.0
 11
1896.347899053042
 21
-3781.430470576379
 31
0.0
  0
ARC
  5
5CF
330
6C
100
AcDbEntity
  8
0
  6
Continuous
 62
     1
100
AcDbCircle
 10
1835.372899053036
 20
-3764.555470576379
 30
0.0
 40
42.075
100
AcDbArc
 50
293.0599683568797
 51
336.3452710186964
  0
LINE
  5
5D0
330
6C
100
AcDbEntity
  8
0
  6
Continuous
 62
     1
100
AcDbLine
 10
2067.422899053039
 20
-3739.380470576377
 30
0.0
 11
2092.647899053031
 21
-3756.205470576359
 31
0.0
  0
ARC
  5
5D1
330
6C
100
AcDbEntity
  8
0
  6
Continuous
 62
     1
100
AcDbCircle
 10
2137.247899053036
 20
-3865.580470576373
 30
0.0
 40
64.5
100
AcDbArc
 50
119.1752719778087
 51
180.0
  0
CIRCLE
  5
5D2
330
6C
100
AcDbEntity
  8
0
  6
Continuous
 62
     1
100
AcDbCircle
 10
2029.897899053031
 20
-3644.90547057637
 30
0.0
 40
7.0
  0
LINE
  5
5D3
330
6C
100
AcDbEntity
  8
0
  6
Continuous
 62
     1
100
AcDbLine
 10
2011.322899053048
 20
-3865.580470576373
 30
0.0
 11
2011.322899053048
 21
-3747.78047057637
 31
0.0
  0
LINE
  5
5D4
330
6C
100
AcDbEntity
  8
0
  6
Continuous
 62
     1
100
AcDbLine
 10
1994.497899053036
 20
-3747.78047057637
 30
0.0
 11
2011.322899053048
 21
-3747.78047057637
 31
0.0
  0
LINE
  5
5D5
330
6C
100
AcDbEntity
  8
0
  6
Continuous
 62
     1
100
AcDbLine
 10
1994.497899053036
 20
-3747.15547057637
 30
0.0
 11
1994.497899053036
 21
-3724.730470576375
 31
0.0
  0
LINE
  5
5D6
330
6C
100
AcDbEntity
  8
0
  6
Continuous
 62
     1
100
AcDbLine
 10
2010.922899053025
 20
-3865.580470576373
 30
0.0
 11
2038.972899053042
 21
-3865.580470576373
 31
0.0
  0
LINE
  5
5D7
330
6C
100
AcDbEntity
  8
0
  6
Continuous
 62
     1
100
AcDbLine
 10
2038.972899053042
 20
-3865.580470576373
 30
0.0
 11
2038.972899053042
 21
-3702.905470576371
 31
0.0
  0
LINE
  5
5D8
330
6C
100
AcDbEntity
  8
0
  6
Continuous
 62
     1
100
AcDbLine
 10
2016.547899053025
 20
-3702.905470576371
 30
0.0
 11
2038.972899053042
 21
-3702.905470576371
 31
0.0
  0
ARC
  5
5D9
330
6C
100
AcDbEntity
  8
0
  6
Continuous
 62
     1
100
AcDbCircle
 10
1977.997899053036
 20
-3686.03047057637
 30
0.0
 40
42.075
100
AcDbArc
 50
293.0912951713499
 51
336.3589280602064
  0
LINE
  5
5DA
330
6C
100
AcDbEntity
  8
4
100
AcDbLine
 10
2021.972899053042
 20
-3460.930470576364
 30
0.0
 11
2021.972899053042
 21
-3453.430470576364
 31
0.0
  0
LINE
  5
5DB
330
6C
100
AcDbEntity
  8
4
100
AcDbLine
 10
3134.472899053042
 20
-5335.930470576364
 30
0.0
 11
3134.472899053042
 21
-3460.930470576364
 31
0.0
  0
CIRCLE
  5
5DC
330
6C
100
AcDbEntity
  8
0
  6
Continuous
 62
     1
100
AcDbCircle
 10
2765.222899053028
 20
-4777.780470576369
 30
0.0
 40
11.225
  0
LINE
  5
5DD
330
6C
100
AcDbEntity
  8
4
100
AcDbLine
 10
3046.972899053042
 20
-5335.930470576364
 30
0.0
 11
3046.972899053042
 21
-3460.930470576364
 31
0.0
  0
LINE
  5
5DE
330
6C
100
AcDbEntity
  8
4
100
AcDbLine
 10
2939.472899053042
 20
-5228.430470576364
 30
0.0
 11
2939.472899053042
 21
-3568.430470576365
 31
0.0
  0
LINE
  5
5DF
330
6C
100
AcDbEntity
  8
4
100
AcDbLine
 10
2374.472899053042
 20
-5658.430470576379
 30
0.0
 11
2486.972899053042
 21
-5395.930470576379
 31
0.0
  0
LINE
  5
5E0
330
6C
100
AcDbEntity
  8
4
100
AcDbLine
 10
2336.972899053042
 20
-5833.430470576379
 30
0.0
 11
2336.972899053042
 21
-5358.430470576379
 31
0.0
  0
LINE
  5
5E1
330
6C
100
AcDbEntity
  8
4
100
AcDbLine
 10
2336.972899053042
 20
-5658.430470576379
 30
0.0
 11
2374.472899053042
 21
-5658.430470576379
 31
0.0
  0
LINE
  5
5E2
330
6C
100
AcDbEntity
  8
0
  6
Continuous
 62
     1
100
AcDbLine
 10
2353.472899053028
 20
-4976.155470576363
 30
0.0
 11
2373.097899053042
 21
-4953.730470576374
 31
0.0
  0
LINE
  5
5E3
330
6C
100
AcDbEntity
  8
0
  6
Continuous
 62
     1
100
AcDbLine
 10
2361.897899053031
 20
-4914.455470576373
 30
0.0
 11
2392.747899053036
 21
-4934.105470576374
 31
0.0
  0
ARC
  5
5E4
330
6C
100
AcDbEntity
  8
0
  6
Continuous
 62
     1
100
AcDbCircle
 10
2450.222899053042
 20
-4825.105470576374
 30
0.0
 40
179.375
100
AcDbArc
 50
237.3597724214798
 51
284.6907362060315
  0
ARC
  5
5E5
330
6C
100
AcDbEntity
  8
0
  6
Continuous
 62
     1
100
AcDbCircle
 10
2437.547899053025
 20
-4867.455470576358
 30
0.0
 40
107.7
100
AcDbArc
 50
233.2391711678647
 51
292.9278597960461
  0
LINE
  5
5E6
330
6C
100
AcDbEntity
  8
0
  6
Continuous
 62
     1
100
AcDbLine
 10
2361.897899053031
 20
-4841.555470576365
 30
0.0
 11
2518.947899053048
 21
-4841.555470576365
 31
0.0
  0
ARC
  5
5E7
330
6C
100
AcDbEntity
  8
0
  6
Continuous
 62
     1
100
AcDbCircle
 10
2143.147899053031
 20
-5043.705470576373
 30
0.0
 40
15.425
100
AcDbArc
 50
292.932100437863
 51
67.10379099104769
  0
LINE
  5
5E8
330
6C
100
AcDbEntity
  8
0
  6
Continuous
 62
     1
100
AcDbLine
 10
2187.997899053036
 20
-4981.780470576371
 30
0.0
 11
2204.822899053048
 21
-4956.53047057637
 31
0.0
  0
ARC
  5
5E9
330
6C
100
AcDbEntity
  8
0
  6
Continuous
 62
     1
100
AcDbCircle
 10
2157.147899053031
 20
-5043.480470576374
 30
0.0
 40
47.675
100
AcDbArc
 50
298.6488375425319
 51
80.000699536607
  0
CIRCLE
  5
5EA
330
6C
100
AcDbEntity
  8
0
  6
Continuous
 62
     1
100
AcDbCircle
 10
2188.397899053031
 20
-5153.080470576359
 30
0.0
 40
7.0
  0
LINE
  5
5EB
330
6C
100
AcDbEntity
  8
0
  6
Continuous
 62
     1
100
AcDbLine
 10
2361.897899053031
 20
-4914.455470576373
 30
0.0
 11
2361.897899053031
 21
-4841.555470576365
 31
0.0
  0
CIRCLE
  5
5EC
330
6C
100
AcDbEntity
  8
0
  6
Continuous
 62
     1
100
AcDbCircle
 10
2343.497899053037
 20
-5120.080470576373
 30
0.0
 40
7.0
  0
CIRCLE
  5
5ED
330
6C
100
AcDbEntity
  8
0
  6
Continuous
 62
     1
100
AcDbCircle
 10
2266.822899053019
 20
-5140.605470576375
 30
0.0
 40
7.0
  0
LINE
  5
5EE
330
6C
100
AcDbEntity
  8
4
100
AcDbLine
 10
2486.972899053042
 20
-5395.930470576379
 30
0.0
 11
2486.972899053042
 21
-5358.430470576379
 31
0.0
  0
LINE
  5
5EF
330
6C
100
AcDbEntity
  8
4
100
AcDbLine
 10
2521.972899053042
 20
-5358.430470576379
 30
0.0
 11
2521.972899053042
 21
-5335.930470576364
 31
0.0
  0
ARC
  5
5F0
330
6C
100
AcDbEntity
  8
0
  6
Continuous
 62
     1
100
AcDbCircle
 10
2479.672899053025
 20
-4953.730470576374
 30
0.0
 40
47.675
100
AcDbArc
 50
289.6598832567434
 51
48.09520177863537
  0
LINE
  5
5F1
330
6C
100
AcDbEntity
  8
0
  6
Continuous
 62
     1
100
AcDbLine
 10
2395.547899053039
 20
-4875.205470576358
 30
0.0
 11
2518.947899053048
 21
-4875.205470576358
 31
0.0
  0
ARC
  5
5F2
330
6C
100
AcDbEntity
  8
0
  6
Continuous
 62
     1
100
AcDbCircle
 10
2442.872899053036
 20
-4994.730470576374
 30
0.0
 40
102.9749999999999
100
AcDbArc
 50
48.0924640896933
 51
117.3549874429184
  0
ARC
  5
5F3
330
6C
100
AcDbEntity
  8
0
  6
Continuous
 62
     1
100
AcDbCircle
 10
2474.072899053019
 20
-4953.730470576374
 30
0.0
 40
14.025
100
AcDbArc
 50
292.8088293179238
 51
49.63156866852873
  0
CIRCLE
  5
5F4
330
6C
100
AcDbEntity
  8
0
  6
Continuous
 62
     1
100
AcDbCircle
 10
2417.472899053028
 20
-5091.605470576375
 30
0.0
 40
7.0
  0
CIRCLE
  5
5F5
330
6C
100
AcDbEntity
  8
0
  6
Continuous
 62
     1
100
AcDbCircle
 10
2487.922899053025
 20
-5055.080470576373
 30
0.0
 40
11.225
  0
LINE
  5
5F6
330
6C
100
AcDbEntity
  8
0
  6
Continuous
 62
     1
100
AcDbLine
 10
2395.547899053039
 20
-4903.255470576375
 30
0.0
 11
2395.547899053039
 21
-4875.205470576358
 31
0.0
  0
ARC
  5
5F7
330
6C
100
AcDbEntity
  8
0
  6
Continuous
 62
     1
100
AcDbCircle
 10
2431.497899053037
 20
-5003.580470576373
 30
0.0
 40
79.59999999999999
100
AcDbArc
 50
49.52367294792437
 51
119.1507936205645
  0
CIRCLE
  5
5F8
330
6C
100
AcDbEntity
  8
0
  6
Continuous
 62
     1
100
AcDbCircle
 10
2616.472899053027
 20
-4962.430470576364
 30
0.0
 40
7.0
  0
LINE
  5
5F9
330
6C
100
AcDbEntity
  8
0
  6
Continuous
 62
     1
100
AcDbLine
 10
2518.947899053048
 20
-4875.205470576358
 30
0.0
 11
2518.947899053048
 21
-4841.555470576365
 31
0.0
  0
CIRCLE
  5
5FA
330
6C
100
AcDbEntity
  8
0
  6
Continuous
 62
     1
100
AcDbCircle
 10
2554.847899053042
 20
-5012.405470576385
 30
0.0
 40
7.0
  0
CIRCLE
  5
5FB
330
6C
100
AcDbEntity
  8
0
  6
Continuous
 62
     1
100
AcDbCircle
 10
2722.497899053037
 20
-4844.630470576376
 30
0.0
 40
7.0
  0
CIRCLE
  5
5FC
330
6C
100
AcDbEntity
  8
0
  6
Continuous
 62
     1
100
AcDbCircle
 10
2672.622899053036
 20
-4906.330470576373
 30
0.0
 40
7.0
  0
ARC
  5
5FD
330
6C
100
AcDbEntity
  8
0
  6
Continuous
 62
     1
100
AcDbCircle
 10
2630.397899053031
 20
-4098.355470576374
 30
0.0
 40
61.70000000000001
100
AcDbArc
 50
54.52445046291931
 51
147.0179669560562
  0
LINE
  5
5FE
330
6C
100
AcDbEntity
  8
0
  6
Continuous
 62
     1
100
AcDbLine
 10
2590.972899053042
 20
-4117.705470576373
 30
0.0
 11
2664.547899053039
 21
-4076.580470576373
 31
0.0
  0
LINE
  5
5FF
330
6C
100
AcDbEntity
  8
0
  6
Continuous
 62
     1
100
AcDbLine
 10
2603.472899053042
 20
-4146.03047057637
 30
0.0
 11
2679.572899053048
 21
-4103.505470576361
 31
0.0
  0
LINE
  5
600
330
6C
100
AcDbEntity
  8
0
  6
Continuous
 62
     1
100
AcDbLine
 10
2625.522899053031
 20
-4451.705470576358
 30
0.0
 11
2647.947899053048
 21
-4429.280470576363
 31
0.0
  0
LINE
  5
601
330
6C
100
AcDbEntity
  8
0
  6
Continuous
 62
     1
100
AcDbLine
 10
2558.197899053048
 20
-4174.080470576373
 30
0.0
 11
2704.047899053025
 21
-4174.080470576373
 31
0.0
  0
LINE
  5
602
330
6C
100
AcDbEntity
  8
0
  6
Continuous
 62
     1
100
AcDbLine
 10
2603.472899053042
 20
-4146.03047057637
 30
0.0
 11
2704.047899053025
 21
-4146.03047057637
 31
0.0
  0
ARC
  5
603
330
6C
100
AcDbEntity
  8
0
  6
Continuous
 62
     1
100
AcDbCircle
 10
2715.322899053048
 20
-4426.03047057637
 30
0.0
 40
114.75
100
AcDbArc
 50
55.03867232163137
 51
135.1853654559576
  0
ARC
  5
604
330
6C
100
AcDbEntity
  8
0
  6
Continuous
 62
     1
100
AcDbCircle
 10
2723.77289905303
 20
-4325.505470576376
 30
0.0
 40
159.975
100
AcDbArc
 50
232.0983094265589
 51
288.3896736209919
  0
LINE
  5
605
330
6C
100
AcDbEntity
  8
0
  6
Continuous
 62
     1
100
AcDbLine
 10
2578.847899053042
 20
-4712.530470576363
 30
0.0
 11
2664.77289905303
 21
-4712.530470576363
 31
0.0
  0
LINE
  5
606
330
6C
100
AcDbEntity
  8
0
  6
Continuous
 62
     1
100
AcDbLine
 10
2578.847899053042
 20
-4712.530470576363
 30
0.0
 11
2664.77289905303
 21
-4638.880470576376
 31
0.0
  0
ARC
  5
607
330
6C
100
AcDbEntity
  8
0
  6
Continuous
 62
     1
100
AcDbCircle
 10
2630.397899053031
 20
-4098.355470576374
 30
0.0
 40
92.55
100
AcDbArc
 50
54.53611750485256
 51
147.0183117866108
  0
LINE
  5
608
330
6C
100
AcDbEntity
  8
0
  6
Continuous
 62
     1
100
AcDbLine
 10
2535.772899053031
 20
-4712.530470576363
 30
0.0
 11
2653.547899053025
 21
-4611.580470576373
 31
0.0
  0
LINE
  5
609
330
6C
100
AcDbEntity
  8
0
  6
Continuous
 62
     1
100
AcDbLine
 10
2535.772899053031
 20
-4746.180470576365
 30
0.0
 11
2664.77289905303
 21
-4746.180470576365
 31
0.0
  0
LINE
  5
60A
330
6C
100
AcDbEntity
  8
0
  6
Continuous
 62
     1
100
AcDbLine
 10
2412.372899053036
 20
-3932.880470576362
 30
0.0
 11
2412.372899053036
 21
-3815.080470576373
 31
0.0
  0
LINE
  5
60B
330
6C
100
AcDbEntity
  8
0
  6
Continuous
 62
     1
100
AcDbLine
 10
2440.022899053031
 20
-3932.880470576362
 30
0.0
 11
2440.022899053031
 21
-3770.230470576374
 31
0.0
  0
LINE
  5
60C
330
6C
100
AcDbEntity
  8
0
  6
Continuous
 62
     1
100
AcDbLine
 10
2217.52289905303
 20
-4511.305470576378
 30
0.0
 11
2261.247899053036
 21
-4435.555470576364
 31
0.0
  0
LINE
  5
60D
330
6C
100
AcDbEntity
  8
0
  6
Continuous
 62
     1
100
AcDbLine
 10
2161.072899053048
 20
-4382.530470576362
 30
0.0
 11
2261.247899053036
 21
-4435.555470576364
 31
0.0
  0
LINE
  5
60E
330
6C
100
AcDbEntity
  8
0
  6
Continuous
 62
     1
100
AcDbLine
 10
2535.772899053031
 20
-4746.180470576365
 30
0.0
 11
2535.772899053031
 21
-4712.530470576363
 31
0.0
  0
LINE
  5
60F
330
6C
100
AcDbEntity
  8
0
  6
Continuous
 62
     1
100
AcDbLine
 10
2411.972899053042
 20
-3932.880470576362
 30
0.0
 11
2440.022899053031
 21
-3932.880470576362
 31
0.0
  0
LINE
  5
610
330
6C
100
AcDbEntity
  8
0
  6
Continuous
 62
     1
100
AcDbLine
 10
2552.597899053042
 20
-4047.855470576375
 30
0.0
 11
2577.847899053042
 21
-4064.680470576379
 31
0.0
  0
ARC
  5
611
330
6C
100
AcDbEntity
  8
0
  6
Continuous
 62
     1
100
AcDbCircle
 10
2622.422899053039
 20
-4174.080470576373
 30
0.0
 40
64.5
100
AcDbArc
 50
119.1558980178519
 51
180.0
  0
LINE
  5
612
330
6C
100
AcDbEntity
  8
0
  6
Continuous
 62
     1
100
AcDbLine
 10
2218.847899053042
 20
-3865.580470576373
 30
0.0
 11
2218.847899053042
 21
-3837.530470576363
 31
0.0
  0
CIRCLE
  5
613
330
6C
100
AcDbEntity
  8
0
  6
Continuous
 62
     1
100
AcDbCircle
 10
2188.397899053031
 20
-3644.980470576375
 30
0.0
 40
7.0
  0
ARC
  5
614
330
6C
100
AcDbEntity
  8
0
  6
Continuous
 62
     1
100
AcDbCircle
 10
2171.172899053039
 20
-3753.380470576362
 30
0.0
 40
16.825
100
AcDbArc
 50
299.153788845729
 51
54.40313237386445
  0
ARC
  5
615
330
6C
100
AcDbEntity
  8
0
  6
Continuous
 62
     1
100
AcDbCircle
 10
2171.172899053039
 20
-3753.380470576362
 30
0.0
 40
47.675
100
AcDbArc
 50
299.1596802968394
 51
54.48674347245136
  0
LINE
  5
616
330
6C
100
AcDbEntity
  8
0
  6
Continuous
 62
     1
100
AcDbLine
 10
2118.297899053039
 20
-3837.530470576363
 30
0.0
 11
2194.397899053031
 21
-3795.005470576362
 31
0.0
  0
LINE
  5
617
330
6C
100
AcDbEntity
  8
0
  6
Continuous
 62
     1
100
AcDbLine
 10
2118.297899053039
 20
-3837.530470576363
 30
0.0
 11
2218.847899053042
 21
-3837.530470576363
 31
0.0
  0
CIRCLE
  5
618
330
6C
100
AcDbEntity
  8
0
  6
Continuous
 62
     1
100
AcDbCircle
 10
2343.422899053025
 20
-3677.905470576371
 30
0.0
 40
7.0
  0
CIRCLE
  5
619
330
6C
100
AcDbEntity
  8
0
  6
Continuous
 62
     1
100
AcDbCircle
 10
2266.747899053036
 20
-3657.355470576375
 30
0.0
 40
7.0
  0
LINE
  5
61A
330
6C
100
AcDbEntity
  8
4
100
AcDbLine
 10
2196.972899053042
 20
-3460.930470576364
 30
0.0
 11
2196.972899053042
 21
-3453.430470576364
 31
0.0
  0
CIRCLE
  5
61B
330
6C
100
AcDbEntity
  8
0
  6
Continuous
 62
     1
100
AcDbCircle
 10
2417.522899053031
 20
-3706.330470576374
 30
0.0
 40
7.0
  0
LINE
  5
61C
330
6C
100
AcDbEntity
  8
0
  6
Continuous
 62
     1
100
AcDbLine
 10
2417.597899053042
 20
-3770.230470576374
 30
0.0
 11
2440.022899053031
 21
-3770.230470576374
 31
0.0
  0
CIRCLE
  5
61D
330
6C
100
AcDbEntity
  8
0
  6
Continuous
 62
     1
100
AcDbCircle
 10
2487.922899053025
 20
-3742.905470576371
 30
0.0
 40
11.225
  0
LINE
  5
61E
330
6C
100
AcDbEntity
  8
0
  6
Continuous
 62
     1
100
AcDbLine
 10
2395.547899053039
 20
-3814.480470576368
 30
0.0
 11
2395.547899053039
 21
-3792.030470576371
 31
0.0
  0
LINE
  5
61F
330
6C
100
AcDbEntity
  8
0
  6
Continuous
 62
     1
100
AcDbLine
 10
2395.547899053039
 20
-3815.080470576373
 30
0.0
 11
2412.372899053036
 21
-3815.080470576373
 31
0.0
  0
ARC
  5
620
330
6C
100
AcDbEntity
  8
0
  6
Continuous
 62
     1
100
AcDbCircle
 10
2379.047899053025
 20
-3753.330470576373
 30
0.0
 40
42.075
100
AcDbArc
 50
293.0912951713499
 51
336.3277537168603
  0
CIRCLE
  5
621
330
6C
100
AcDbEntity
  8
0
  6
Continuous
 62
     1
100
AcDbCircle
 10
2616.472899053027
 20
-3835.505470576377
 30
0.0
 40
7.0
  0
CIRCLE
  5
622
330
6C
100
AcDbEntity
  8
0
  6
Continuous
 62
     1
100
AcDbCircle
 10
2554.772899053031
 20
-3785.655470576363
 30
0.0
 40
7.0
  0
ARC
  5
623
330
6C
100
AcDbEntity
  8
0
  6
Continuous
 62
     1
100
AcDbCircle
 10
2760.122899053036
 20
-4361.980470576367
 30
0.0
 40
36.45
100
AcDbArc
 50
299.4134137505991
 51
55.05936901773849
  0
ARC
  5
624
330
6C
100
AcDbEntity
  8
0
  6
Continuous
 62
     1
100
AcDbCircle
 10
2710.322899053019
 20
-4428.505470576361
 30
0.0
 40
83.25000000000001
100
AcDbArc
 50
59.57021369838491
 51
132.9806370180149
  0
LINE
  5
625
330
6C
100
AcDbEntity
  8
0
  6
Continuous
 62
     1
100
AcDbLine
 10
2692.822899053048
 20
-4415.255470576383
 30
0.0
 11
2692.822899053048
 21
-4376.005470576362
 31
0.0
  0
ARC
  5
626
330
6C
100
AcDbEntity
  8
0
  6
Continuous
 62
     1
100
AcDbCircle
 10
2734.822899053048
 20
-4178.505470576361
 30
0.0
 40
201.9249999999999
100
AcDbArc
 50
257.9944268729935
 51
273.4126793517854
  0
LINE
  5
627
330
6C
100
AcDbEntity
  8
0
  6
Continuous
 62
     1
100
AcDbLine
 10
2745.097899053042
 20
-4380.15547057637
 30
0.0
 11
2745.272899053031
 21
-4380.15547057637
 31
0.0
  0
ARC
  5
628
330
6C
100
AcDbEntity
  8
0
  6
Continuous
 62
     1
100
AcDbCircle
 10
2713.247899053036
 20
-4499.505470576376
 30
0.0
 40
86.65
100
AcDbArc
 50
63.04282215744295
 51
103.627481464912
  0
ARC
  5
629
330
6C
100
AcDbEntity
  8
0
  6
Continuous
 62
     1
100
AcDbCircle
 10
2746.097899053057
 20
-4367.580470576373
 30
0.0
 40
12.625
100
AcDbArc
 50
273.4132000141043
 51
59.52294412532879
  0
ARC
  5
62A
330
6C
100
AcDbEntity
  8
0
  6
Continuous
 62
     1
100
AcDbCircle
 10
2746.097899053057
 20
-4434.880470576376
 30
0.0
 40
14.025
100
AcDbArc
 50
280.6134220541533
 51
62.98022996144785
  0
LINE
  5
62B
330
6C
100
AcDbEntity
  8
0
  6
Continuous
 62
     1
100
AcDbLine
 10
2633.922899053039
 20
-4345.15547057637
 30
0.0
 11
2653.547899053025
 21
-4367.580470576373
 31
0.0
  0
ARC
  5
62C
330
6C
100
AcDbEntity
  8
0
  6
Continuous
 62
     1
100
AcDbCircle
 10
2723.097899053042
 20
-4311.480470576374
 30
0.0
 40
139.7249999999999
100
AcDbArc
 50
237.4643368149025
 51
280.5635743910686
  0
LINE
  5
62D
330
6C
100
AcDbEntity
  8
0
  6
Continuous
 62
     1
100
AcDbLine
 10
2653.547899053025
 20
-4611.580470576373
 30
0.0
 11
2698.422899053025
 21
-4611.580470576373
 31
0.0
  0
LINE
  5
62E
330
6C
100
AcDbEntity
  8
0
  6
Continuous
 62
     1
100
AcDbLine
 10
2698.422899053025
 20
-4768.630470576376
 30
0.0
 11
2698.422899053025
 21
-4746.180470576365
 31
0.0
  0
LINE
  5
62F
330
6C
100
AcDbEntity
  8
0
  6
Continuous
 62
     1
100
AcDbLine
 10
2698.422899053025
 20
-4746.180470576365
 30
0.0
 11
2726.472899053028
 21
-4746.180470576365
 31
0.0
  0
LINE
  5
630
330
6C
100
AcDbEntity
  8
0
  6
Continuous
 62
     1
100
AcDbLine
 10
2698.422899053025
 20
-4712.530470576363
 30
0.0
 11
2726.472899053028
 21
-4712.530470576363
 31
0.0
  0
LINE
  5
631
330
6C
100
AcDbEntity
  8
0
  6
Continuous
 62
     1
100
AcDbLine
 10
2726.472899053028
 20
-4746.180470576365
 30
0.0
 11
2726.472899053028
 21
-4712.530470576363
 31
0.0
  0
LINE
  5
632
330
6C
100
AcDbEntity
  8
0
  6
Continuous
 62
     1
100
AcDbLine
 10
2664.77289905303
 20
-4768.630470576376
 30
0.0
 11
2664.77289905303
 21
-4746.180470576365
 31
0.0
  0
LINE
  5
633
330
6C
100
AcDbEntity
  8
0
  6
Continuous
 62
     1
100
AcDbLine
 10
2664.77289905303
 20
-4768.630470576376
 30
0.0
 11
2698.422899053025
 21
-4768.630470576376
 31
0.0
  0
LINE
  5
634
330
6C
100
AcDbEntity
  8
0
  6
Continuous
 62
     1
100
AcDbLine
 10
2698.422899053025
 20
-4712.530470576363
 30
0.0
 11
2698.422899053025
 21
-4611.580470576373
 31
0.0
  0
LINE
  5
635
330
6C
100
AcDbEntity
  8
0
  6
Continuous
 62
     1
100
AcDbLine
 10
2664.77289905303
 20
-4712.530470576363
 30
0.0
 11
2664.77289905303
 21
-4638.880470576376
 31
0.0
  0
CIRCLE
  5
636
330
6C
100
AcDbEntity
  8
0
  6
Continuous
 62
     1
100
AcDbCircle
 10
2866.697899053048
 20
-4398.980470576375
 30
0.0
 40
11.225
  0
CIRCLE
  5
637
330
6C
100
AcDbEntity
  8
0
  6
Continuous
 62
     1
100
AcDbCircle
 10
2863.122899053037
 20
-4478.255470576375
 30
0.0
 40
7.0
  0
CIRCLE
  5
638
330
6C
100
AcDbEntity
  8
0
  6
Continuous
 62
     1
100
AcDbCircle
 10
2850.822899053048
 20
-4556.605470576374
 30
0.0
 40
7.0
  0
ARC
  5
639
330
6C
100
AcDbEntity
  8
0
  6
Continuous
 62
     1
100
AcDbCircle
 10
2760.122899053036
 20
-4434.880470576376
 30
0.0
 40
44.87499999999999
100
AcDbArc
 50
288.4046282507913
 51
66.49125248099682
  0
CIRCLE
  5
63A
330
6C
100
AcDbEntity
  8
0
  6
Continuous
 62
     1
100
AcDbCircle
 10
2801.797899053039
 20
-4707.380470576376
 30
0.0
 40
7.0
  0
CIRCLE
  5
63B
330
6C
100
AcDbEntity
  8
0
  6
Continuous
 62
     1
100
AcDbCircle
 10
2830.247899053036
 20
-4633.280470576369
 30
0.0
 40
7.0
  0
CIRCLE
  5
63C
330
6C
100
AcDbEntity
  8
0
  6
Continuous
 62
     1
100
AcDbCircle
 10
2765.222899053028
 20
-4020.205470576373
 30
0.0
 40
11.225
  0
CIRCLE
  5
63D
330
6C
100
AcDbEntity
  8
0
  6
Continuous
 62
     1
100
AcDbCircle
 10
2722.547899053024
 20
-3953.305470576379
 30
0.0
 40
7.0
  0
LINE
  5
63E
330
6C
100
AcDbEntity
  8
0
  6
Continuous
 62
     1
100
AcDbLine
 10
2704.047899053025
 20
-4174.080470576373
 30
0.0
 11
2704.047899053025
 21
-4146.03047057637
 31
0.0
  0
ARC
  5
63F
330
6C
100
AcDbEntity
  8
0
  6
Continuous
 62
     1
100
AcDbCircle
 10
2656.372899053037
 20
-4061.880470576375
 30
0.0
 40
16.825
100
AcDbArc
 50
299.0794182071249
 51
54.47219568312561
  0
ARC
  5
640
330
6C
100
AcDbEntity
  8
0
  6
Continuous
 62
     1
100
AcDbCircle
 10
2656.372899053037
 20
-4061.880470576375
 30
0.0
 40
47.675
100
AcDbArc
 50
299.1334313636809
 51
54.52860040144861
  0
CIRCLE
  5
641
330
6C
100
AcDbEntity
  8
0
  6
Continuous
 62
     1
100
AcDbCircle
 10
2850.77289905303
 20
-4241.330470576373
 30
0.0
 40
7.0
  0
CIRCLE
  5
642
330
6C
100
AcDbEntity
  8
0
  6
Continuous
 62
     1
100
AcDbCircle
 10
2863.222899053042
 20
-4319.730470576367
 30
0.0
 40
7.0
  0
CIRCLE
  5
643
330
6C
100
AcDbEntity
  8
0
  6
Continuous
 62
     1
100
AcDbCircle
 10
2801.747899053037
 20
-4090.655470576363
 30
0.0
 40
7.0
  0
CIRCLE
  5
644
330
6C
100
AcDbEntity
  8
0
  6
Continuous
 62
     1
100
AcDbCircle
 10
2830.247899053036
 20
-4164.655470576362
 30
0.0
 40
7.0
  0
CIRCLE
  5
645
330
6C
100
AcDbEntity
  8
0
  6
Continuous
 62
     1
100
AcDbCircle
 10
2672.572899053048
 20
-3891.65547057637
 30
0.0
 40
7.0
  0
LINE
  5
646
330
6C
100
AcDbEntity
  8
0
  6
Continuous
 62
     1
100
AcDbLine
 10
2638.022899053031
 20
-3852.180470576364
 30
0.0
 11
2655.722899053043
 21
-3869.880470576376
 31
0.0
  0
LINE
  5
647
330
6C
100
AcDbEntity
  8
4
100
AcDbLine
 10
2640.722899053042
 20
-3445.930470576364
 30
0.0
 11
2828.222899053042
 21
-3445.930470576364
 31
0.0
  0
LINE
  5
648
330
6C
100
AcDbEntity
  8
4
100
AcDbLine
 10
2640.722899053042
 20
-3455.930470576364
 30
0.0
 11
2828.222899053042
 21
-3455.930470576364
 31
0.0
  0
LINE
  5
649
330
6C
100
AcDbEntity
  8
4
100
AcDbLine
 10
2703.222899053042
 20
-3455.930470576364
 30
0.0
 11
2703.222899053042
 21
-3445.930470576364
 31
0.0
  0
LINE
  5
64A
330
6C
100
AcDbEntity
  8
4
100
AcDbLine
 10
2640.722899053042
 20
-3460.930470576364
 30
0.0
 11
2640.722899053042
 21
-3455.930470576364
 31
0.0
  0
LINE
  5
64B
330
6C
100
AcDbEntity
  8
4
100
AcDbLine
 10
2640.722899053042
 20
-3455.930470576364
 30
0.0
 11
2640.722899053042
 21
-3445.930470576364
 31
0.0
  0
LINE
  5
64C
330
6C
100
AcDbEntity
  8
4
100
AcDbLine
 10
2828.222899053042
 20
-3455.930470576364
 30
0.0
 11
2828.222899053042
 21
-3445.930470576364
 31
0.0
  0
LINE
  5
64D
330
6C
100
AcDbEntity
  8
4
100
AcDbLine
 10
2828.222899053042
 20
-3460.930470576364
 30
0.0
 11
2828.222899053042
 21
-3455.930470576364
 31
0.0
  0
LINE
  5
64E
330
6C
100
AcDbEntity
  8
4
100
AcDbLine
 10
2765.722899053042
 20
-3455.930470576364
 30
0.0
 11
2765.722899053042
 21
-3445.930470576364
 31
0.0
  0
LINE
  5
64F
330
6C
100
AcDbEntity
  8
4
100
AcDbLine
 10
3388.930899834901
 20
-5335.930470576364
 30
0.0
 11
3388.930899834901
 21
-3460.930470576364
 31
0.0
  0
LINE
  5
650
330
6C
100
AcDbEntity
  8
4
100
AcDbLine
 10
3259.472899053042
 20
-5335.930470576364
 30
0.0
 11
3259.472899053042
 21
-3460.930470576364
 31
0.0
  0
LINE
  5
651
330
6C
100
AcDbEntity
  8
4
100
AcDbLine
 10
8294.158398711735
 20
-14673.43047057636
 30
0.0
 11
8294.158398711735
 21
-15998.43047057636
 31
0.0
  0
LINE
  5
652
330
6C
100
AcDbEntity
  8
4
100
AcDbLine
 10
8137.658398711733
 20
-15998.43047057636
 30
0.0
 11
8294.158398711735
 21
-15998.43047057636
 31
0.0
  0
LINE
  5
653
330
6C
100
AcDbEntity
  8
4
100
AcDbLine
 10
8137.658398711733
 20
-14673.43047057636
 30
0.0
 11
8294.158398711735
 21
-14673.43047057636
 31
0.0
  0
LINE
  5
654
330
6C
100
AcDbEntity
  8
4
100
AcDbLine
 10
7408.033398712142
 20
-3460.930470576364
 30
0.0
 11
9624.896753966373
 21
-3460.930470576364
 31
0.0
  0
LINE
  5
655
330
6C
100
AcDbEntity
  8
4
100
AcDbLine
 10
7408.033398712142
 20
-5335.930470576364
 30
0.0
 11
9624.896753966373
 21
-5335.930470576364
 31
0.0
  0
LINE
  5
656
330
6C
100
AcDbEntity
  8
4
100
AcDbLine
 10
8093.421753966394
 20
-5228.430470576364
 30
0.0
 11
9531.024253966375
 21
-5228.430470576364
 31
0.0
  0
LINE
  5
657
330
6C
100
AcDbEntity
  8
4
100
AcDbLine
 10
8093.421753966394
 20
-3568.430470576365
 30
0.0
 11
9531.024253966375
 21
-3568.430470576365
 31
0.0
  0
LINE
  5
658
330
6C
100
AcDbEntity
  8
4
100
AcDbLine
 10
7931.658398712142
 20
-5358.430470576379
 30
0.0
 11
8756.658398712142
 21
-5358.430470576379
 31
0.0
  0
LINE
  5
659
330
6C
100
AcDbEntity
  8
4
100
AcDbLine
 10
8116.658398712141
 20
-5833.430470576379
 30
0.0
 11
8571.658398712141
 21
-5833.430470576379
 31
0.0
  0
CIRCLE
  5
65A
330
6C
100
AcDbEntity
  8
0
  6
Continuous
 62
     1
100
AcDbCircle
 10
8418.531753966368
 20
-4101.907970576372
 30
0.0
 40
68.00500000000001
  0
CIRCLE
  5
65B
330
6C
100
AcDbEntity
  8
0
  6
Continuous
 62
     1
100
AcDbCircle
 10
8418.531753966368
 20
-4101.907970576372
 30
0.0
 40
38.8625
  0
ARC
  5
65C
330
6C
100
AcDbEntity
  8
0
  6
Continuous
 62
     1
100
AcDbCircle
 10
8365.096753966383
 20
-4658.102970576364
 30
0.0
 40
120.1825
100
AcDbArc
 50
238.5988920748659
 51
301.4011079251341
  0
CIRCLE
  5
65D
330
6C
100
AcDbEntity
  8
0
  6
Continuous
 62
     1
100
AcDbCircle
 10
8243.721753966383
 20
-4777.755470576383
 30
0.0
 40
11.225
  0
LINE
  5
65E
330
6C
100
AcDbEntity
  8
4
100
AcDbLine
 10
8000.32175396636
 20
-5335.930470576364
 30
0.0
 11
8000.32175396636
 21
-3460.930470576364
 31
0.0
  0
LINE
  5
65F
330
6C
100
AcDbEntity
  8
4
100
AcDbLine
 10
8093.421753966394
 20
-5228.430470576364
 30
0.0
 11
8093.421753966394
 21
-3568.430470576365
 31
0.0
  0
LINE
  5
660
330
6C
100
AcDbEntity
  8
4
100
AcDbLine
 10
7408.033398712142
 20
-5335.930470576364
 30
0.0
 11
7408.033398712142
 21
-3460.930470576364
 31
0.0
  0
LINE
  5
661
330
6C
100
AcDbEntity
  8
4
100
AcDbLine
 10
7608.033398712142
 20
-5335.930470576364
 30
0.0
 11
7608.033398712142
 21
-3460.930470576364
 31
0.0
  0
LINE
  5
662
330
6C
100
AcDbEntity
  8
4
100
AcDbLine
 10
7824.540898712148
 20
-5335.930470576364
 30
0.0
 11
7824.540898712148
 21
-3460.930470576364
 31
0.0
  0
LINE
  5
663
330
6C
100
AcDbEntity
  8
4
100
AcDbLine
 10
7900.318398712144
 20
-5335.930470576364
 30
0.0
 11
7900.318398712144
 21
-3460.930470576364
 31
0.0
  0
LINE
  5
664
330
6C
100
AcDbEntity
  8
4
100
AcDbLine
 10
7966.658398712141
 20
-5395.930470576379
 30
0.0
 11
8079.158398712142
 21
-5658.430470576379
 31
0.0
  0
LINE
  5
665
330
6C
100
AcDbEntity
  8
4
100
AcDbLine
 10
8116.658398712141
 20
-5833.430470576379
 30
0.0
 11
8116.658398712141
 21
-5358.430470576379
 31
0.0
  0
LINE
  5
666
330
6C
100
AcDbEntity
  8
4
100
AcDbLine
 10
8079.158398712142
 20
-5658.430470576379
 30
0.0
 11
8116.658398712141
 21
-5658.430470576379
 31
0.0
  0
LINE
  5
667
330
6C
100
AcDbEntity
  8
4
100
AcDbLine
 10
7931.658398712142
 20
-5358.430470576379
 30
0.0
 11
7931.658398712142
 21
-5335.930470576364
 31
0.0
  0
LINE
  5
668
330
6C
100
AcDbEntity
  8
4
100
AcDbLine
 10
7966.658398712141
 20
-5395.930470576379
 30
0.0
 11
7966.658398712141
 21
-5358.430470576379
 31
0.0
  0
CIRCLE
  5
669
330
6C
100
AcDbEntity
  8
0
  6
Continuous
 62
     1
100
AcDbCircle
 10
8323.959253966371
 20
-4906.305470576379
 30
0.0
 40
7.0
  0
CIRCLE
  5
66A
330
6C
100
AcDbEntity
  8
0
  6
Continuous
 62
     1
100
AcDbCircle
 10
8280.679253966374
 20
-4844.65547057637
 30
0.0
 40
7.0
  0
CIRCLE
  5
66B
330
6C
100
AcDbEntity
  8
0
  6
Continuous
 62
     1
100
AcDbCircle
 10
8425.911753966387
 20
-5012.305470576379
 30
0.0
 40
7.0
  0
CIRCLE
  5
66C
330
6C
100
AcDbEntity
  8
0
  6
Continuous
 62
     1
100
AcDbCircle
 10
8372.541753966377
 20
-4962.455470576358
 30
0.0
 40
7.0
  0
CIRCLE
  5
66D
330
6C
100
AcDbEntity
  8
0
  6
Continuous
 62
     1
100
AcDbCircle
 10
8187.409253966384
 20
-4164.655470576362
 30
0.0
 40
7.0
  0
CIRCLE
  5
66E
330
6C
100
AcDbEntity
  8
0
  6
Continuous
 62
     1
100
AcDbCircle
 10
8187.409253966384
 20
-4633.305470576379
 30
0.0
 40
7.0
  0
CIRCLE
  5
66F
330
6C
100
AcDbEntity
  8
0
  6
Continuous
 62
     1
100
AcDbCircle
 10
8155.841753966379
 20
-4398.980470576375
 30
0.0
 40
11.225
  0
CIRCLE
  5
670
330
6C
100
AcDbEntity
  8
0
  6
Continuous
 62
     1
100
AcDbCircle
 10
8169.634253966389
 20
-4556.630470576361
 30
0.0
 40
7.0
  0
CIRCLE
  5
671
330
6C
100
AcDbEntity
  8
0
  6
Continuous
 62
     1
100
AcDbCircle
 10
8158.851753966388
 20
-4478.230470576374
 30
0.0
 40
7.0
  0
CIRCLE
  5
672
330
6C
100
AcDbEntity
  8
0
  6
Continuous
 62
     1
100
AcDbCircle
 10
8169.634253966389
 20
-4241.330470576373
 30
0.0
 40
7.0
  0
CIRCLE
  5
673
330
6C
100
AcDbEntity
  8
0
  6
Continuous
 62
     1
100
AcDbCircle
 10
8158.851753966388
 20
-4319.730470576367
 30
0.0
 40
7.0
  0
ARC
  5
674
330
6C
100
AcDbEntity
  8
0
  6
Continuous
 62
     1
100
AcDbCircle
 10
8307.00925396639
 20
-4398.655470576385
 30
0.0
 40
84.12500000000001
100
AcDbArc
 50
263.6165462908228
 51
76.98877906812048
  0
ARC
  5
675
330
6C
100
AcDbEntity
  8
0
  6
Continuous
 62
     1
100
AcDbCircle
 10
8252.384253966388
 20
-4362.980470576374
 30
0.0
 40
47.675
100
AcDbArc
 50
110.9748974319047
 51
252.3135395336121
  0
ARC
  5
676
330
6C
100
AcDbEntity
  8
0
  6
Continuous
 62
     1
100
AcDbCircle
 10
8289.009253966389
 20
-4448.005470576376
 30
0.0
 40
102.025
100
AcDbArc
 50
59.3905265728711
 51
105.2464896349352
  0
ARC
  5
677
330
6C
100
AcDbEntity
  8
0
  6
Continuous
 62
     1
100
AcDbCircle
 10
8297.38425396639
 20
-4386.03047057637
 30
0.0
 40
61.70000000000001
100
AcDbArc
 50
276.0454497856311
 51
328.1841171965431
  0
ARC
  5
678
330
6C
100
AcDbEntity
  8
0
  6
Continuous
 62
     1
100
AcDbCircle
 10
8365.096753966383
 20
-4772.590470576375
 30
0.0
 40
140.0375
100
AcDbArc
 50
68.99539579752154
 51
111.0046042024784
  0
ARC
  5
679
330
6C
100
AcDbEntity
  8
0
  6
Continuous
 62
     1
100
AcDbCircle
 10
8316.109253966365
 20
-4162.680470576378
 30
0.0
 40
258.075
100
AcDbArc
 50
252.3445852662933
 51
277.5029531817161
  0
ARC
  5
67A
330
6C
100
AcDbEntity
  8
0
  6
Continuous
 62
     1
100
AcDbCircle
 10
8310.284253966385
 20
-4290.280470576369
 30
0.0
 40
102.025
100
AcDbArc
 50
239.3905265728711
 51
285.2464896349352
  0
ARC
  5
67B
330
6C
100
AcDbEntity
  8
0
  6
Continuous
 62
     1
100
AcDbCircle
 10
8326.234253966395
 20
-4671.417970576374
 30
0.0
 40
31.5675
100
AcDbArc
 50
110.9763830645169
 51
232.0709367324569
  0
ARC
  5
67C
330
6C
100
AcDbEntity
  8
0
  6
Continuous
 62
     1
100
AcDbCircle
 10
8321.384253966391
 20
-4729.700470576368
 30
0.0
 40
36.4375
100
AcDbArc
 50
113.5917536969907
 51
238.6087062423563
  0
ARC
  5
67D
330
6C
100
AcDbEntity
  8
0
  6
Continuous
 62
     1
100
AcDbCircle
 10
8266.309253966392
 20
-4364.655470576362
 30
0.0
 40
15.425
100
AcDbArc
 50
105.3117590546146
 51
239.3052357615699
  0
LINE
  5
67E
330
6C
100
AcDbEntity
  8
0
  6
Continuous
 62
     1
100
AcDbLine
 10
8193.559253966377
 20
-4442.805470576364
 30
0.0
 11
8213.584253966372
 21
-4420.030470576363
 31
0.0
  0
CIRCLE
  5
67F
330
6C
100
AcDbEntity
  8
0
  6
Continuous
 62
     1
100
AcDbCircle
 10
8212.046753966367
 20
-4707.305470576378
 30
0.0
 40
7.0
  0
ARC
  5
680
330
6C
100
AcDbEntity
  8
0
  6
Continuous
 62
     1
100
AcDbCircle
 10
8305.959253966372
 20
-4277.830470576373
 30
0.0
 40
169.55
100
AcDbArc
 50
236.9917139774703
 51
269.2989366994301
  0
ARC
  5
681
330
6C
100
AcDbEntity
  8
0
  6
Continuous
 62
     1
100
AcDbCircle
 10
8322.609253966367
 20
-4259.28047057637
 30
0.0
 40
224.35
100
AcDbArc
 50
234.8861119083016
 51
263.6146823726431
  0
ARC
  5
682
330
6C
100
AcDbEntity
  8
0
  6
Continuous
 62
     1
100
AcDbCircle
 10
8403.959253966371
 20
-4671.417970576374
 30
0.0
 40
31.5675
100
AcDbArc
 50
307.9290632675431
 51
69.02361693548313
  0
ARC
  5
683
330
6C
100
AcDbEntity
  8
0
  6
Continuous
 62
     1
100
AcDbCircle
 10
8394.239253966372
 20
-4671.417970576374
 30
0.0
 40
9.72
100
AcDbArc
 50
288.6768980530436
 51
71.36541512260643
  0
LINE
  5
684
330
6C
100
AcDbEntity
  8
0
  6
Continuous
 62
     1
100
AcDbLine
 10
8349.534253966384
 20
-4418.955470576373
 30
0.0
 11
8349.584253966371
 21
-4418.630470576376
 31
0.0
  0
LINE
  5
685
330
6C
100
AcDbEntity
  8
0
  6
Continuous
 62
     1
100
AcDbLine
 10
8349.584253966371
 20
-4418.555470576364
 30
0.0
 11
8349.809253966377
 21
-4418.555470576364
 31
0.0
  0
ARC
  5
686
330
6C
100
AcDbEntity
  8
0
  6
Continuous
 62
     1
100
AcDbCircle
 10
8335.954253966397
 20
-4671.417970576374
 30
0.0
 40
9.72
100
AcDbArc
 50
108.6345848773936
 51
251.3231019469564
  0
ARC
  5
687
330
6C
100
AcDbEntity
  8
0
  6
Continuous
 62
     1
100
AcDbCircle
 10
8365.096753966383
 20
-4757.435470576369
 30
0.0
 40
100.6099999999999
100
AcDbArc
 50
71.29167790559697
 51
108.708322094403
  0
ARC
  5
688
330
6C
100
AcDbEntity
  8
0
  6
Continuous
 62
     1
100
AcDbCircle
 10
8365.096753966383
 20
-4585.377970576373
 30
0.0
 40
100.6099999999999
100
AcDbArc
 50
251.291677905597
 51
288.708322094403
  0
ARC
  5
689
330
6C
100
AcDbEntity
  8
0
  6
Continuous
 62
     1
100
AcDbCircle
 10
8332.984253966365
 20
-4373.630470576375
 30
0.0
 40
15.425
100
AcDbArc
 50
285.3117590546147
 51
59.30523576156993
  0
ARC
  5
68A
330
6C
100
AcDbEntity
  8
0
  6
Continuous
 62
     1
100
AcDbCircle
 10
8333.529253966379
 20
-4729.700470576368
 30
0.0
 40
14.57
100
AcDbArc
 50
107.0350494502033
 51
252.9678190019836
  0
ARC
  5
68B
330
6C
100
AcDbEntity
  8
0
  6
Continuous
 62
     1
100
AcDbCircle
 10
8365.096753966383
 20
-4832.542970576374
 30
0.0
 40
122.26
100
AcDbArc
 50
72.93958358760784
 51
107.0604164123921
  0
ARC
  5
68C
330
6C
100
AcDbEntity
  8
0
  6
Continuous
 62
     1
100
AcDbCircle
 10
8365.096753966383
 20
-4626.860470576372
 30
0.0
 40
122.26
100
AcDbArc
 50
252.9395835876079
 51
287.0604164123922
  0
ARC
  5
68D
330
6C
100
AcDbEntity
  8
0
  6
Continuous
 62
     1
100
AcDbCircle
 10
8396.664253966388
 20
-4729.700470576368
 30
0.0
 40
14.57
100
AcDbArc
 50
287.0321809980164
 51
72.96495054979665
  0
ARC
  5
68E
330
6C
100
AcDbEntity
  8
0
  6
Continuous
 62
     1
100
AcDbCircle
 10
8408.809253966392
 20
-4729.700470576368
 30
0.0
 40
36.4375
100
AcDbArc
 50
301.3912937576437
 51
66.40824630300926
  0
LINE
  5
68F
330
6C
100
AcDbEntity
  8
0
  6
Continuous
 62
     1
100
AcDbLine
 10
8306.814253966368
 20
-4169.935470576368
 30
0.0
 11
8331.084253966372
 21
-4169.935470576368
 31
0.0
  0
LINE
  5
690
330
6C
100
AcDbEntity
  8
0
  6
Continuous
 62
     1
100
AcDbLine
 10
8311.661753966371
 20
-4029.055470576365
 30
0.0
 11
8331.084253966372
 21
-4029.055470576365
 31
0.0
  0
ARC
  5
691
330
6C
100
AcDbEntity
  8
0
  6
Continuous
 62
     1
100
AcDbCircle
 10
8283.809253966392
 20
-4499.28047057637
 30
0.0
 40
187.175
100
AcDbArc
 50
77.00423692578088
 51
105.0107885016368
  0
LINE
  5
692
330
6C
100
AcDbEntity
  8
0
  6
Continuous
 62
     1
100
AcDbLine
 10
8307.136753966377
 20
-4169.935470576368
 30
0.0
 11
8307.136753966377
 21
-4067.917970576367
 31
0.0
  0
LINE
  5
693
330
6C
100
AcDbEntity
  8
0
  6
Continuous
 62
     1
100
AcDbLine
 10
8292.566753966385
 20
-4067.917970576367
 30
0.0
 11
8307.136753966377
 21
-4067.917970576367
 31
0.0
  0
LINE
  5
694
330
6C
100
AcDbEntity
  8
0
  6
Continuous
 62
     1
100
AcDbLine
 10
8292.566753966385
 20
-4067.375470576371
 30
0.0
 11
8292.566753966385
 21
-4047.955470576373
 31
0.0
  0
ARC
  5
695
330
6C
100
AcDbEntity
  8
0
  6
Continuous
 62
     1
100
AcDbCircle
 10
8278.299253966398
 20
-4014.440470576373
 30
0.0
 40
36.4375
100
AcDbArc
 50
293.0596925524438
 51
336.3433752391842
  0
CIRCLE
  5
696
330
6C
100
AcDbEntity
  8
0
  6
Continuous
 62
     1
100
AcDbCircle
 10
8280.679253966374
 20
-3953.305470576379
 30
0.0
 40
7.0
  0
CIRCLE
  5
697
330
6C
100
AcDbEntity
  8
0
  6
Continuous
 62
     1
100
AcDbCircle
 10
8243.721753966383
 20
-4020.205470576373
 30
0.0
 40
11.225
  0
CIRCLE
  5
698
330
6C
100
AcDbEntity
  8
0
  6
Continuous
 62
     1
100
AcDbCircle
 10
8212.046753966367
 20
-4090.655470576363
 30
0.0
 40
7.0
  0
LINE
  5
699
330
6C
100
AcDbEntity
  8
0
  6
Continuous
 62
     1
100
AcDbLine
 10
8331.084253966372
 20
-4169.935470576368
 30
0.0
 11
8331.084253966372
 21
-4029.055470576365
 31
0.0
  0
CIRCLE
  5
69A
330
6C
100
AcDbEntity
  8
0
  6
Continuous
 62
     1
100
AcDbCircle
 10
8323.959253966371
 20
-3891.65547057637
 30
0.0
 40
7.0
  0
CIRCLE
  5
69B
330
6C
100
AcDbEntity
  8
0
  6
Continuous
 62
     1
100
AcDbCircle
 10
8425.911753966387
 20
-3785.655470576363
 30
0.0
 40
7.0
  0
CIRCLE
  5
69C
330
6C
100
AcDbEntity
  8
0
  6
Continuous
 62
     1
100
AcDbCircle
 10
8372.541753966377
 20
-3835.505470576377
 30
0.0
 40
7.0
  0
LINE
  5
69D
330
6C
100
AcDbEntity
  8
4
100
AcDbLine
 10
8256.658398712142
 20
-3453.430470576364
 30
0.0
 11
8431.658398712142
 21
-3453.430470576364
 31
0.0
  0
LINE
  5
69E
330
6C
100
AcDbEntity
  8
4
100
AcDbLine
 10
8256.658398712142
 20
-3460.930470576364
 30
0.0
 11
8256.658398712142
 21
-3453.430470576364
 31
0.0
  0
LINE
  5
69F
330
6C
100
AcDbEntity
  8
4
100
AcDbLine
 10
8431.658398712142
 20
-3460.930470576364
 30
0.0
 11
8431.658398712142
 21
-3453.430470576364
 31
0.0
  0
CIRCLE
  5
6A0
330
6C
100
AcDbEntity
  8
0
  6
Continuous
 62
     1
100
AcDbCircle
 10
9380.076753966365
 20
-4777.755470576383
 30
0.0
 40
11.225
  0
LINE
  5
6A1
330
6C
100
AcDbEntity
  8
4
100
AcDbLine
 10
8609.158398712141
 20
-5658.430470576379
 30
0.0
 11
8721.658398712142
 21
-5395.930470576379
 31
0.0
  0
LINE
  5
6A2
330
6C
100
AcDbEntity
  8
4
100
AcDbLine
 10
8571.658398712141
 20
-5833.430470576379
 30
0.0
 11
8571.658398712141
 21
-5358.430470576379
 31
0.0
  0
LINE
  5
6A3
330
6C
100
AcDbEntity
  8
4
100
AcDbLine
 10
8571.658398712141
 20
-5658.430470576379
 30
0.0
 11
8609.158398712141
 21
-5658.430470576379
 31
0.0
  0
LINE
  5
6A4
330
6C
100
AcDbEntity
  8
0
  6
Continuous
 62
     1
100
AcDbLine
 10
8549.926753966371
 20
-4995.562970576371
 30
0.0
 11
8627.65425396638
 21
-4886.270470576375
 31
0.0
  0
LINE
  5
6A5
330
6C
100
AcDbEntity
  8
0
  6
Continuous
 62
     1
100
AcDbLine
 10
8477.051753966371
 20
-4859.552970576377
 30
0.0
 11
8627.65425396638
 21
-4859.552970576377
 31
0.0
  0
LINE
  5
6A6
330
6C
100
AcDbEntity
  8
0
  6
Continuous
 62
     1
100
AcDbLine
 10
8477.051753966371
 20
-4886.270470576375
 30
0.0
 11
8588.789253966387
 21
-4886.270470576375
 31
0.0
  0
LINE
  5
6A7
330
6C
100
AcDbEntity
  8
0
  6
Continuous
 62
     1
100
AcDbLine
 10
8511.064253966383
 20
-4995.562970576371
 30
0.0
 11
8588.789253966387
 21
-4886.270470576375
 31
0.0
  0
LINE
  5
6A8
330
6C
100
AcDbEntity
  8
0
  6
Continuous
 62
     1
100
AcDbLine
 10
8477.051753966371
 20
-4886.270470576375
 30
0.0
 11
8477.051753966371
 21
-4859.552970576377
 31
0.0
  0
CIRCLE
  5
6A9
330
6C
100
AcDbEntity
  8
0
  6
Continuous
 62
     1
100
AcDbCircle
 10
8483.869253966375
 20
-5055.055470576379
 30
0.0
 40
11.225
  0
LINE
  5
6AA
330
6C
100
AcDbEntity
  8
0
  6
Continuous
 62
     1
100
AcDbLine
 10
8511.064253966383
 20
-4995.562970576371
 30
0.0
 11
8549.926753966371
 21
-4995.562970576371
 31
0.0
  0
CIRCLE
  5
6AB
330
6C
100
AcDbEntity
  8
0
  6
Continuous
 62
     1
100
AcDbCircle
 10
8544.839253966378
 20
-5091.630470576362
 30
0.0
 40
7.0
  0
LINE
  5
6AC
330
6C
100
AcDbEntity
  8
0
  6
Continuous
 62
     1
100
AcDbLine
 10
8627.65425396638
 20
-4886.270470576375
 30
0.0
 11
8627.65425396638
 21
-4859.552970576377
 31
0.0
  0
CIRCLE
  5
6AD
330
6C
100
AcDbEntity
  8
0
  6
Continuous
 62
     1
100
AcDbCircle
 10
8609.011753966376
 20
-5120.055470576379
 30
0.0
 40
7.0
  0
CIRCLE
  5
6AE
330
6C
100
AcDbEntity
  8
0
  6
Continuous
 62
     1
100
AcDbCircle
 10
8675.414253966389
 20
-5140.605470576375
 30
0.0
 40
7.0
  0
LINE
  5
6AF
330
6C
100
AcDbEntity
  8
4
100
AcDbLine
 10
8756.658398712142
 20
-5358.430470576379
 30
0.0
 11
8756.658398712142
 21
-5335.930470576364
 31
0.0
  0
LINE
  5
6B0
330
6C
100
AcDbEntity
  8
4
100
AcDbLine
 10
8721.658398712142
 20
-5395.930470576379
 30
0.0
 11
8721.658398712142
 21
-5358.430470576379
 31
0.0
  0
ARC
  5
6B1
330
6C
100
AcDbEntity
  8
0
  6
Continuous
 62
     1
100
AcDbCircle
 10
8817.376753966383
 20
-5120.057970576374
 30
0.0
 40
146.835
100
AcDbArc
 50
64.65530892161209
 51
96.96847188394109
  0
ARC
  5
6B2
330
6C
100
AcDbEntity
  8
0
  6
Continuous
 62
     1
100
AcDbCircle
 10
8805.231753966364
 20
-5137.940470576374
 30
0.0
 40
194.2924999999999
100
AcDbArc
 50
62.55308843633422
 51
91.29022735170654
  0
ARC
  5
6B3
330
6C
100
AcDbEntity
  8
0
  6
Continuous
 62
     1
100
AcDbCircle
 10
8810.816753966385
 20
-4927.452970576371
 30
0.0
 40
162.0975
100
AcDbArc
 50
264.6774185827978
 51
292.6744504676511
  0
ARC
  5
6B4
330
6C
100
AcDbEntity
  8
0
  6
Continuous
 62
     1
100
AcDbCircle
 10
8821.944253966387
 20
-5220.082970576375
 30
0.0
 40
223.4999999999999
100
AcDbArc
 50
80.01188752638707
 51
105.1667616389308
  0
ARC
  5
6B5
330
6C
100
AcDbEntity
  8
0
  6
Continuous
 62
     1
100
AcDbCircle
 10
8812.224253966386
 20
-5109.902970576375
 30
0.0
 40
88.35500000000001
100
AcDbArc
 50
67.06916373673315
 51
112.9173885831064
  0
ARC
  5
6B6
330
6C
100
AcDbEntity
  8
0
  6
Continuous
 62
     1
100
AcDbCircle
 10
8812.224253966386
 20
-4972.052970576377
 30
0.0
 40
88.35500000000001
100
AcDbArc
 50
247.0826114168936
 51
292.9308362632668
  0
ARC
  5
6B7
330
6C
100
AcDbEntity
  8
0
  6
Continuous
 62
     1
100
AcDbCircle
 10
8812.224253966386
 20
-5026.20297057637
 30
0.0
 40
53.435
100
AcDbArc
 50
103.7086122746117
 51
155.8635687562446
  0
LINE
  5
6B8
330
6C
100
AcDbEntity
  8
0
  6
Continuous
 62
     1
100
AcDbLine
 10
8763.661753966387
 20
-5004.312970576371
 30
0.0
 11
8763.661753966387
 21
-5003.965470576375
 31
0.0
  0
LINE
  5
6B9
330
6C
100
AcDbEntity
  8
0
  6
Continuous
 62
     1
100
AcDbLine
 10
8763.46675396638
 20
-5004.355470576374
 30
0.0
 11
8763.661753966387
 21
-5004.355470576374
 31
0.0
  0
ARC
  5
6BA
330
6C
100
AcDbEntity
  8
0
  6
Continuous
 62
     1
100
AcDbCircle
 10
8783.081753966397
 20
-5040.987970576374
 30
0.0
 40
13.35749999999999
100
AcDbArc
 50
112.8898983288099
 51
247.0769552605243
  0
ARC
  5
6BB
330
6C
100
AcDbEntity
  8
0
  6
Continuous
 62
     1
100
AcDbCircle
 10
8802.524253966373
 20
-5016.502970576373
 30
0.0
 40
72.85500000000002
100
AcDbArc
 50
91.31191780074074
 51
264.6744254469814
  0
CIRCLE
  5
6BC
330
6C
100
AcDbEntity
  8
0
  6
Continuous
 62
     1
100
AcDbCircle
 10
8811.899253966373
 20
-5156.580470576373
 30
0.0
 40
11.225
  0
CIRCLE
  5
6BD
330
6C
100
AcDbEntity
  8
0
  6
Continuous
 62
     1
100
AcDbCircle
 10
8743.266753966366
 20
-5152.980470576374
 30
0.0
 40
7.0
  0
LINE
  5
6BE
330
6C
100
AcDbEntity
  8
0
  6
Continuous
 62
     1
100
AcDbLine
 10
8880.22925396639
 20
-4987.360470576365
 30
0.0
 11
8894.799253966368
 21
-4965.492970576379
 31
0.0
  0
ARC
  5
6BF
330
6C
100
AcDbEntity
  8
0
  6
Continuous
 62
     1
100
AcDbCircle
 10
8841.386753966363
 20
-5040.987970576374
 30
0.0
 40
13.35749999999999
100
AcDbArc
 50
292.9328550244021
 51
67.10030241206273
  0
ARC
  5
6C0
330
6C
100
AcDbEntity
  8
0
  6
Continuous
 62
     1
100
AcDbCircle
 10
8853.511753966392
 20
-5040.795470576384
 30
0.0
 40
41.2875
100
AcDbArc
 50
298.6514516896324
 51
80.00184138100497
  0
CIRCLE
  5
6C1
330
6C
100
AcDbEntity
  8
0
  6
Continuous
 62
     1
100
AcDbCircle
 10
8948.38425396639
 20
-5140.605470576375
 30
0.0
 40
7.0
  0
CIRCLE
  5
6C2
330
6C
100
AcDbEntity
  8
0
  6
Continuous
 62
     1
100
AcDbCircle
 10
8880.531753966382
 20
-5152.980470576374
 30
0.0
 40
7.0
  0
LINE
  5
6C3
330
6C
100
AcDbEntity
  8
0
  6
Continuous
 62
     1
100
AcDbLine
 10
9059.971753966385
 20
-4883.845470576372
 30
0.0
 11
9166.839253966378
 21
-4883.845470576372
 31
0.0
  0
ARC
  5
6C4
330
6C
100
AcDbEntity
  8
0
  6
Continuous
 62
     1
100
AcDbCircle
 10
9107.32175396639
 20
-4840.457970576375
 30
0.0
 40
155.3425
100
AcDbArc
 50
237.3597878427479
 51
284.6911503493456
  0
ARC
  5
6C5
330
6C
100
AcDbEntity
  8
0
  6
Continuous
 62
     1
100
AcDbCircle
 10
9096.344253966382
 20
-4877.132970576364
 30
0.0
 40
93.26999999999999
100
AcDbArc
 50
233.2397630356421
 51
292.9275303028397
  0
ARC
  5
6C6
330
6C
100
AcDbEntity
  8
0
  6
Continuous
 62
     1
100
AcDbCircle
 10
9100.95675396637
 20
-4987.357970576369
 30
0.0
 40
89.18000000000002
100
AcDbArc
 50
48.09319914287021
 51
117.3550895755544
  0
ARC
  5
6C7
330
6C
100
AcDbEntity
  8
0
  6
Continuous
 62
     1
100
AcDbCircle
 10
9091.106753966379
 20
-4995.020470576361
 30
0.0
 40
68.93500000000002
100
AcDbArc
 50
49.52316611109282
 51
119.1527512523909
  0
LINE
  5
6C8
330
6C
100
AcDbEntity
  8
0
  6
Continuous
 62
     1
100
AcDbLine
 10
9030.829253966382
 20
-4854.70297057637
 30
0.0
 11
9166.839253966378
 21
-4854.70297057637
 31
0.0
  0
LINE
  5
6C9
330
6C
100
AcDbEntity
  8
0
  6
Continuous
 62
     1
100
AcDbLine
 10
9059.971753966385
 20
-4908.137970576369
 30
0.0
 11
9059.971753966385
 21
-4883.845470576372
 31
0.0
  0
CIRCLE
  5
6CA
330
6C
100
AcDbEntity
  8
0
  6
Continuous
 62
     1
100
AcDbCircle
 10
9078.959253966372
 20
-5091.630470576362
 30
0.0
 40
7.0
  0
LINE
  5
6CB
330
6C
100
AcDbEntity
  8
0
  6
Continuous
 62
     1
100
AcDbLine
 10
9030.829253966382
 20
-4917.837970576365
 30
0.0
 11
9030.829253966382
 21
-4854.70297057637
 31
0.0
  0
CIRCLE
  5
6CC
330
6C
100
AcDbEntity
  8
0
  6
Continuous
 62
     1
100
AcDbCircle
 10
9014.786753966371
 20
-5120.055470576379
 30
0.0
 40
7.0
  0
LINE
  5
6CD
330
6C
100
AcDbEntity
  8
0
  6
Continuous
 62
     1
100
AcDbLine
 10
9023.534253966383
 20
-4971.27047057636
 30
0.0
 11
9040.529253966379
 21
-4951.850470576378
 31
0.0
  0
LINE
  5
6CE
330
6C
100
AcDbEntity
  8
0
  6
Continuous
 62
     1
100
AcDbLine
 10
9030.829253966382
 20
-4917.837970576365
 30
0.0
 11
9057.546753966366
 21
-4934.855470576374
 31
0.0
  0
CIRCLE
  5
6CF
330
6C
100
AcDbEntity
  8
0
  6
Continuous
 62
     1
100
AcDbCircle
 10
9197.886753966391
 20
-5012.305470576379
 30
0.0
 40
7.0
  0
LINE
  5
6D0
330
6C
100
AcDbEntity
  8
0
  6
Continuous
 62
     1
100
AcDbLine
 10
9166.839253966378
 20
-4883.845470576372
 30
0.0
 11
9166.839253966378
 21
-4854.70297057637
 31
0.0
  0
ARC
  5
6D1
330
6C
100
AcDbEntity
  8
0
  6
Continuous
 62
     1
100
AcDbCircle
 10
9127.976753966388
 20
-4951.850470576378
 30
0.0
 40
12.145
100
AcDbArc
 50
292.8044166677194
 51
49.62916758257691
  0
CIRCLE
  5
6D2
330
6C
100
AcDbEntity
  8
0
  6
Continuous
 62
     1
100
AcDbCircle
 10
9139.929253966373
 20
-5055.055470576379
 30
0.0
 40
11.225
  0
ARC
  5
6D3
330
6C
100
AcDbEntity
  8
0
  6
Continuous
 62
     1
100
AcDbCircle
 10
9132.826753966366
 20
-4951.850470576378
 30
0.0
 40
41.2875
100
AcDbArc
 50
289.6608207911758
 51
48.09663329519271
  0
CIRCLE
  5
6D4
330
6C
100
AcDbEntity
  8
0
  6
Continuous
 62
     1
100
AcDbCircle
 10
9343.11925396639
 20
-4844.65547057637
 30
0.0
 40
7.0
  0
CIRCLE
  5
6D5
330
6C
100
AcDbEntity
  8
0
  6
Continuous
 62
     1
100
AcDbCircle
 10
9299.839253966377
 20
-4906.305470576379
 30
0.0
 40
7.0
  0
CIRCLE
  5
6D6
330
6C
100
AcDbEntity
  8
0
  6
Continuous
 62
     1
100
AcDbCircle
 10
9251.256753966387
 20
-4962.455470576358
 30
0.0
 40
7.0
  0
LINE
  5
6D7
330
6C
100
AcDbEntity
  8
0
  6
Continuous
 62
     1
100
AcDbLine
 10
8737.984253966381
 20
-4524.830470576373
 30
0.0
 11
9285.29175396639
 21
-3869.880470576376
 31
0.0
  0
LINE
  5
6D8
330
6C
100
AcDbEntity
  8
0
  6
Continuous
 62
     1
100
AcDbLine
 10
8702.759253966389
 20
-4484.155470576371
 30
0.0
 11
9269.961753966375
 21
-3852.180470576364
 31
0.0
  0
LINE
  5
6D9
330
6C
100
AcDbEntity
  8
0
  6
Continuous
 62
     1
100
AcDbLine
 10
8603.706753966369
 20
-3932.457970576376
 30
0.0
 11
8603.706753966369
 21
-3830.440470576374
 31
0.0
  0
LINE
  5
6DA
330
6C
100
AcDbEntity
  8
0
  6
Continuous
 62
     1
100
AcDbLine
 10
8627.65425396638
 20
-3932.457970576376
 30
0.0
 11
8627.65425396638
 21
-3791.577970576363
 31
0.0
  0
LINE
  5
6DB
330
6C
100
AcDbEntity
  8
0
  6
Continuous
 62
     1
100
AcDbLine
 10
8482.246753966377
 20
-3932.457970576376
 30
0.0
 11
8482.246753966377
 21
-3830.440470576374
 31
0.0
  0
LINE
  5
6DC
330
6C
100
AcDbEntity
  8
0
  6
Continuous
 62
     1
100
AcDbLine
 10
8506.214253966376
 20
-3932.457970576376
 30
0.0
 11
8506.214253966376
 21
-3791.577970576363
 31
0.0
  0
LINE
  5
6DD
330
6C
100
AcDbEntity
  8
0
  6
Continuous
 62
     1
100
AcDbLine
 10
8702.759253966389
 20
-4484.155470576371
 30
0.0
 11
8737.984253966381
 21
-4524.830470576373
 31
0.0
  0
LINE
  5
6DE
330
6C
100
AcDbEntity
  8
0
  6
Continuous
 62
     1
100
AcDbLine
 10
8474.539253966389
 20
-4148.780470576363
 30
0.0
 11
8816.271753966386
 21
-4357.680470576378
 31
0.0
  0
LINE
  5
6DF
330
6C
100
AcDbEntity
  8
0
  6
Continuous
 62
     1
100
AcDbLine
 10
8456.136753966362
 20
-4185.580470576373
 30
0.0
 11
8767.991753966374
 21
-4411.480470576374
 31
0.0
  0
LINE
  5
6E0
330
6C
100
AcDbEntity
  8
0
  6
Continuous
 62
     1
100
AcDbLine
 10
8481.92175396638
 20
-3932.457970576376
 30
0.0
 11
8506.214253966376
 21
-3932.457970576376
 31
0.0
  0
LINE
  5
6E1
330
6C
100
AcDbEntity
  8
0
  6
Continuous
 62
     1
100
AcDbLine
 10
8456.136753966362
 20
-4185.580470576373
 30
0.0
 11
8474.539253966389
 21
-4148.780470576363
 31
0.0
  0
LINE
  5
6E2
330
6C
100
AcDbEntity
  8
0
  6
Continuous
 62
     1
100
AcDbLine
 10
8603.359253966395
 20
-3932.457970576376
 30
0.0
 11
8627.65425396638
 21
-3932.457970576376
 31
0.0
  0
LINE
  5
6E3
330
6C
100
AcDbEntity
  8
0
  6
Continuous
 62
     1
100
AcDbLine
 10
8808.304253966374
 20
-4440.680470576379
 30
0.0
 11
8905.799253966398
 21
-4511.305470576378
 31
0.0
  0
CIRCLE
  5
6E4
330
6C
100
AcDbEntity
  8
0
  6
Continuous
 62
     1
100
AcDbCircle
 10
8812.224253966386
 20
-4398.430470576363
 30
0.0
 40
16.375
  0
LINE
  5
6E5
330
6C
100
AcDbEntity
  8
0
  6
Continuous
 62
     1
100
AcDbLine
 10
8905.799253966398
 20
-4511.305470576378
 30
0.0
 11
8943.664253966359
 21
-4435.555470576364
 31
0.0
  0
LINE
  5
6E6
330
6C
100
AcDbEntity
  8
0
  6
Continuous
 62
     1
100
AcDbLine
 10
8856.911753966386
 20
-4382.530470576362
 30
0.0
 11
8943.664253966359
 21
-4435.555470576364
 31
0.0
  0
LINE
  5
6E7
330
6C
100
AcDbEntity
  8
0
  6
Continuous
 62
     1
100
AcDbLine
 10
8486.771753966371
 20
-3791.577970576363
 30
0.0
 11
8506.214253966376
 21
-3791.577970576363
 31
0.0
  0
LINE
  5
6E8
330
6C
100
AcDbEntity
  8
0
  6
Continuous
 62
     1
100
AcDbLine
 10
8467.676753966371
 20
-3829.897970576364
 30
0.0
 11
8467.676753966371
 21
-3810.477970576373
 31
0.0
  0
LINE
  5
6E9
330
6C
100
AcDbEntity
  8
0
  6
Continuous
 62
     1
100
AcDbLine
 10
8467.676753966371
 20
-3830.440470576374
 30
0.0
 11
8482.246753966377
 21
-3830.440470576374
 31
0.0
  0
ARC
  5
6EA
330
6C
100
AcDbEntity
  8
0
  6
Continuous
 62
     1
100
AcDbCircle
 10
8453.411753966385
 20
-3776.962970576366
 30
0.0
 40
36.4375
100
AcDbArc
 50
293.0560742686557
 51
336.3417971524921
  0
CIRCLE
  5
6EB
330
6C
100
AcDbEntity
  8
0
  6
Continuous
 62
     1
100
AcDbCircle
 10
8483.869253966375
 20
-3742.905470576371
 30
0.0
 40
11.225
  0
CIRCLE
  5
6EC
330
6C
100
AcDbEntity
  8
0
  6
Continuous
 62
     1
100
AcDbCircle
 10
8544.839253966378
 20
-3706.330470576374
 30
0.0
 40
7.0
  0
CIRCLE
  5
6ED
330
6C
100
AcDbEntity
  8
0
  6
Continuous
 62
     1
100
AcDbCircle
 10
8675.414253966389
 20
-3657.355470576375
 30
0.0
 40
7.0
  0
LINE
  5
6EE
330
6C
100
AcDbEntity
  8
0
  6
Continuous
 62
     1
100
AcDbLine
 10
8589.11425396637
 20
-3830.440470576374
 30
0.0
 11
8603.706753966369
 21
-3830.440470576374
 31
0.0
  0
LINE
  5
6EF
330
6C
100
AcDbEntity
  8
0
  6
Continuous
 62
     1
100
AcDbLine
 10
8589.11425396637
 20
-3829.897970576364
 30
0.0
 11
8589.11425396637
 21
-3810.477970576373
 31
0.0
  0
ARC
  5
6F0
330
6C
100
AcDbEntity
  8
0
  6
Continuous
 62
     1
100
AcDbCircle
 10
8574.846753966383
 20
-3776.962970576366
 30
0.0
 40
36.4375
100
AcDbArc
 50
293.0596925524438
 51
336.3449531284941
  0
CIRCLE
  5
6F1
330
6C
100
AcDbEntity
  8
0
  6
Continuous
 62
     1
100
AcDbCircle
 10
8609.011753966376
 20
-3677.905470576371
 30
0.0
 40
7.0
  0
LINE
  5
6F2
330
6C
100
AcDbEntity
  8
0
  6
Continuous
 62
     1
100
AcDbLine
 10
8608.211753966374
 20
-3791.577970576363
 30
0.0
 11
8627.65425396638
 21
-3791.577970576363
 31
0.0
  0
LINE
  5
6F3
330
6C
100
AcDbEntity
  8
0
  6
Continuous
 62
     1
100
AcDbLine
 10
8780.656753966381
 20
-3853.235470576365
 30
0.0
 11
8906.946753966389
 21
-3853.235470576365
 31
0.0
  0
ARC
  5
6F4
330
6C
100
AcDbEntity
  8
0
  6
Continuous
 62
     1
100
AcDbCircle
 10
8843.184253966377
 20
-3787.65547057637
 30
0.0
 40
80.15
100
AcDbArc
 50
54.52717873843942
 51
147.0260986147579
  0
ARC
  5
6F5
330
6C
100
AcDbEntity
  8
0
  6
Continuous
 62
     1
100
AcDbCircle
 10
8843.184253966377
 20
-3787.65547057637
 30
0.0
 40
53.435
100
AcDbArc
 50
54.52439170168162
 51
147.0160132303632
  0
LINE
  5
6F6
330
6C
100
AcDbEntity
  8
0
  6
Continuous
 62
     1
100
AcDbLine
 10
8809.019253966399
 20
-3804.412970576385
 30
0.0
 11
8872.759253966389
 21
-3768.797970576372
 31
0.0
  0
LINE
  5
6F7
330
6C
100
AcDbEntity
  8
0
  6
Continuous
 62
     1
100
AcDbLine
 10
8819.866753966373
 20
-3828.942970576376
 30
0.0
 11
8885.771753966372
 21
-3792.115470576377
 31
0.0
  0
LINE
  5
6F8
330
6C
100
AcDbEntity
  8
0
  6
Continuous
 62
     1
100
AcDbLine
 10
8819.866753966373
 20
-3828.942970576376
 30
0.0
 11
8906.946753966389
 21
-3828.942970576376
 31
0.0
  0
CIRCLE
  5
6F9
330
6C
100
AcDbEntity
  8
0
  6
Continuous
 62
     1
100
AcDbCircle
 10
8811.899253966373
 20
-3641.380470576376
 30
0.0
 40
11.225
  0
LINE
  5
6FA
330
6C
100
AcDbEntity
  8
0
  6
Continuous
 62
     1
100
AcDbLine
 10
8775.806753966376
 20
-3743.942970576376
 30
0.0
 11
8797.654253966378
 21
-3758.512970576369
 31
0.0
  0
ARC
  5
6FB
330
6C
100
AcDbEntity
  8
0
  6
Continuous
 62
     1
100
AcDbCircle
 10
8836.279253966379
 20
-3853.235470576365
 30
0.0
 40
55.8575
100
AcDbArc
 50
119.1767686942205
 51
180.0
  0
LINE
  5
6FC
330
6C
100
AcDbEntity
  8
0
  6
Continuous
 62
     1
100
AcDbLine
 10
8727.224253966387
 20
-3853.235470576365
 30
0.0
 11
8727.224253966387
 21
-3751.21797057637
 31
0.0
  0
LINE
  5
6FD
330
6C
100
AcDbEntity
  8
0
  6
Continuous
 62
     1
100
AcDbLine
 10
8712.651753966376
 20
-3751.21797057637
 30
0.0
 11
8727.224253966387
 21
-3751.21797057637
 31
0.0
  0
LINE
  5
6FE
330
6C
100
AcDbEntity
  8
0
  6
Continuous
 62
     1
100
AcDbLine
 10
8712.651753966376
 20
-3750.675470576374
 30
0.0
 11
8712.651753966376
 21
-3731.255470576376
 31
0.0
  0
LINE
  5
6FF
330
6C
100
AcDbEntity
  8
0
  6
Continuous
 62
     1
100
AcDbLine
 10
8726.876753966369
 20
-3853.235470576365
 30
0.0
 11
8751.169253966365
 21
-3853.235470576365
 31
0.0
  0
LINE
  5
700
330
6C
100
AcDbEntity
  8
0
  6
Continuous
 62
     1
100
AcDbLine
 10
8751.169253966365
 20
-3853.235470576365
 30
0.0
 11
8751.169253966365
 21
-3712.352970576372
 31
0.0
  0
LINE
  5
701
330
6C
100
AcDbEntity
  8
0
  6
Continuous
 62
     1
100
AcDbLine
 10
8731.749253966381
 20
-3712.352970576372
 30
0.0
 11
8751.169253966365
 21
-3712.352970576372
 31
0.0
  0
ARC
  5
702
330
6C
100
AcDbEntity
  8
0
  6
Continuous
 62
     1
100
AcDbCircle
 10
8698.364253966371
 20
-3697.740470576377
 30
0.0
 40
36.4375
100
AcDbArc
 50
293.0886318152566
 51
336.3611697120088
  0
CIRCLE
  5
703
330
6C
100
AcDbEntity
  8
0
  6
Continuous
 62
     1
100
AcDbCircle
 10
8743.266753966366
 20
-3644.980470576375
 30
0.0
 40
7.0
  0
CIRCLE
  5
704
330
6C
100
AcDbEntity
  8
0
  6
Continuous
 62
     1
100
AcDbCircle
 10
8948.38425396639
 20
-3657.355470576375
 30
0.0
 40
7.0
  0
LINE
  5
705
330
6C
100
AcDbEntity
  8
0
  6
Continuous
 62
     1
100
AcDbLine
 10
8906.946753966389
 20
-3853.235470576365
 30
0.0
 11
8906.946753966389
 21
-3828.942970576376
 31
0.0
  0
CIRCLE
  5
706
330
6C
100
AcDbEntity
  8
0
  6
Continuous
 62
     1
100
AcDbCircle
 10
8880.531753966382
 20
-3644.980470576375
 30
0.0
 40
7.0
  0
ARC
  5
707
330
6C
100
AcDbEntity
  8
0
  6
Continuous
 62
     1
100
AcDbCircle
 10
8865.659253966382
 20
-3756.065470576374
 30
0.0
 40
14.57
100
AcDbArc
 50
299.1452664330217
 51
54.40422100592182
  0
ARC
  5
708
330
6C
100
AcDbEntity
  8
0
  6
Continuous
 62
     1
100
AcDbCircle
 10
8865.659253966382
 20
-3756.065470576374
 30
0.0
 40
41.2875
100
AcDbArc
 50
299.1573963345414
 51
54.48729892138163
  0
LINE
  5
709
330
6C
100
AcDbEntity
  8
0
  6
Continuous
 62
     1
100
AcDbLine
 10
9074.541753966377
 20
-3922.735470576372
 30
0.0
 11
9074.541753966377
 21
-3820.71797057637
 31
0.0
  0
LINE
  5
70A
330
6C
100
AcDbEntity
  8
0
  6
Continuous
 62
     1
100
AcDbLine
 10
9098.48925396637
 20
-3922.735470576372
 30
0.0
 11
9098.48925396637
 21
-3781.877970576374
 31
0.0
  0
LINE
  5
70B
330
6C
100
AcDbEntity
  8
0
  6
Continuous
 62
     1
100
AcDbLine
 10
9185.899253966374
 20
-4170.055470576379
 30
0.0
 11
9312.209253966372
 21
-4170.055470576379
 31
0.0
  0
ARC
  5
70C
330
6C
100
AcDbEntity
  8
0
  6
Continuous
 62
     1
100
AcDbCircle
 10
9248.426753966384
 20
-4104.475470576377
 30
0.0
 40
80.15
100
AcDbArc
 50
54.53547880555478
 51
147.0188429497039
  0
ARC
  5
70D
330
6C
100
AcDbEntity
  8
0
  6
Continuous
 62
     1
100
AcDbCircle
 10
9248.426753966384
 20
-4104.475470576377
 30
0.0
 40
53.435
100
AcDbArc
 50
54.52283447418314
 51
147.0182611079162
  0
LINE
  5
70E
330
6C
100
AcDbEntity
  8
0
  6
Continuous
 62
     1
100
AcDbLine
 10
9214.284253966383
 20
-4121.232970576362
 30
0.0
 11
9278.001753966384
 21
-4085.617970576364
 31
0.0
  0
LINE
  5
70F
330
6C
100
AcDbEntity
  8
0
  6
Continuous
 62
     1
100
AcDbLine
 10
9225.10925396638
 20
-4145.762970576368
 30
0.0
 11
9291.014253966364
 21
-4108.935470576368
 31
0.0
  0
LINE
  5
710
330
6C
100
AcDbEntity
  8
0
  6
Continuous
 62
     1
100
AcDbLine
 10
9225.10925396638
 20
-4145.762970576368
 30
0.0
 11
9312.209253966372
 21
-4145.762970576368
 31
0.0
  0
LINE
  5
711
330
6C
100
AcDbEntity
  8
0
  6
Continuous
 62
     1
100
AcDbLine
 10
9166.479253966391
 20
-4749.242970576379
 30
0.0
 11
9278.196753966389
 21
-4749.242970576379
 31
0.0
  0
LINE
  5
712
330
6C
100
AcDbEntity
  8
0
  6
Continuous
 62
     1
100
AcDbLine
 10
9203.784253966368
 20
-4720.100470576377
 30
0.0
 11
9278.196753966389
 21
-4720.100470576377
 31
0.0
  0
LINE
  5
713
330
6C
100
AcDbEntity
  8
0
  6
Continuous
 62
     1
100
AcDbLine
 10
9166.479253966391
 20
-4720.100470576377
 30
0.0
 11
9268.474253966386
 21
-4632.675470576359
 31
0.0
  0
LINE
  5
714
330
6C
100
AcDbEntity
  8
0
  6
Continuous
 62
     1
100
AcDbLine
 10
9203.784253966368
 20
-4720.100470576377
 30
0.0
 11
9278.196753966389
 21
-4656.317970576361
 31
0.0
  0
LINE
  5
715
330
6C
100
AcDbEntity
  8
0
  6
Continuous
 62
     1
100
AcDbLine
 10
9166.479253966391
 20
-4749.242970576379
 30
0.0
 11
9166.479253966391
 21
-4720.100470576377
 31
0.0
  0
LINE
  5
716
330
6C
100
AcDbEntity
  8
0
  6
Continuous
 62
     1
100
AcDbLine
 10
9074.196753966388
 20
-3922.735470576372
 30
0.0
 11
9098.48925396637
 21
-3922.735470576372
 31
0.0
  0
LINE
  5
717
330
6C
100
AcDbEntity
  8
0
  6
Continuous
 62
     1
100
AcDbLine
 10
9181.049253966369
 20
-4060.742970576364
 30
0.0
 11
9202.916753966361
 21
-4075.312970576371
 31
0.0
  0
ARC
  5
718
330
6C
100
AcDbEntity
  8
0
  6
Continuous
 62
     1
100
AcDbCircle
 10
9241.519253966369
 20
-4170.055470576379
 30
0.0
 40
55.8575
100
AcDbArc
 50
119.1543977161105
 51
180.0
  0
ARC
  5
719
330
6C
100
AcDbEntity
  8
0
  6
Continuous
 62
     1
100
AcDbCircle
 10
9375.70175396638
 20
-4366.862970576359
 30
0.0
 40
31.5675
100
AcDbArc
 50
299.4133701768387
 51
55.05804632997863
  0
ARC
  5
71A
330
6C
100
AcDbEntity
  8
0
  6
Continuous
 62
     1
100
AcDbCircle
 10
9336.904253966379
 20
-4422.332970576375
 30
0.0
 40
99.37750000000001
100
AcDbArc
 50
55.03881281540852
 51
135.1855017513786
  0
ARC
  5
71B
330
6C
100
AcDbEntity
  8
0
  6
Continuous
 62
     1
100
AcDbCircle
 10
9353.79175396639
 20
-4207.970470576372
 30
0.0
 40
174.8725
100
AcDbArc
 50
257.9946074026403
 51
273.4130505228105
  0
ARC
  5
71C
330
6C
100
AcDbEntity
  8
0
  6
Continuous
 62
     1
100
AcDbCircle
 10
9335.106753966393
 20
-4485.962970576365
 30
0.0
 40
75.04000000000002
100
AcDbArc
 50
63.04196223851321
 51
103.6267139168048
  0
ARC
  5
71D
330
6C
100
AcDbEntity
  8
0
  6
Continuous
 62
     1
100
AcDbCircle
 10
9332.574253966377
 20
-4424.475470576378
 30
0.0
 40
72.09750000000003
100
AcDbArc
 50
59.56970323396224
 51
132.9800550980345
  0
ARC
  5
71E
330
6C
100
AcDbEntity
  8
0
  6
Continuous
 62
     1
100
AcDbCircle
 10
9343.639253966394
 20
-4323.130470576361
 30
0.0
 40
121.005
100
AcDbArc
 50
237.4639865227686
 51
280.5635565785005
  0
ARC
  5
71F
330
6C
100
AcDbEntity
  8
0
  6
Continuous
 62
     1
100
AcDbCircle
 10
9344.221753966383
 20
-4335.275470576372
 30
0.0
 40
138.5425
100
AcDbArc
 50
232.0989848115468
 51
288.3898582296901
  0
LINE
  5
720
330
6C
100
AcDbEntity
  8
0
  6
Continuous
 62
     1
100
AcDbLine
 10
9317.419253966363
 20
-4413.000470576371
 30
0.0
 11
9317.419253966363
 21
-4379.010470576366
 31
0.0
  0
LINE
  5
721
330
6C
100
AcDbEntity
  8
0
  6
Continuous
 62
     1
100
AcDbLine
 10
9362.691753966386
 20
-4382.602970576372
 30
0.0
 11
9362.841753966378
 21
-4382.602970576372
 31
0.0
  0
LINE
  5
722
330
6C
100
AcDbEntity
  8
0
  6
Continuous
 62
     1
100
AcDbLine
 10
9266.409253966385
 20
-4352.292970576367
 30
0.0
 11
9283.40675396638
 21
-4371.712970576373
 31
0.0
  0
LINE
  5
723
330
6C
100
AcDbEntity
  8
0
  6
Continuous
 62
     1
100
AcDbLine
 10
9259.136753966393
 20
-4444.567970576375
 30
0.0
 11
9278.556753966375
 21
-4425.147970576378
 31
0.0
  0
LINE
  5
724
330
6C
100
AcDbEntity
  8
0
  6
Continuous
 62
     1
100
AcDbLine
 10
9268.474253966386
 20
-4632.675470576359
 30
0.0
 11
9307.339253966377
 21
-4632.675470576359
 31
0.0
  0
LINE
  5
725
330
6C
100
AcDbEntity
  8
0
  6
Continuous
 62
     1
100
AcDbLine
 10
9331.629253966385
 20
-4749.242970576379
 30
0.0
 11
9331.629253966385
 21
-4720.100470576377
 31
0.0
  0
LINE
  5
726
330
6C
100
AcDbEntity
  8
0
  6
Continuous
 62
     1
100
AcDbLine
 10
9307.339253966377
 20
-4768.685470576369
 30
0.0
 11
9307.339253966377
 21
-4749.242970576379
 31
0.0
  0
LINE
  5
727
330
6C
100
AcDbEntity
  8
0
  6
Continuous
 62
     1
100
AcDbLine
 10
9278.196753966389
 20
-4768.685470576369
 30
0.0
 11
9307.339253966377
 21
-4768.685470576369
 31
0.0
  0
LINE
  5
728
330
6C
100
AcDbEntity
  8
0
  6
Continuous
 62
     1
100
AcDbLine
 10
9278.196753966389
 20
-4768.685470576369
 30
0.0
 11
9278.196753966389
 21
-4749.242970576379
 31
0.0
  0
LINE
  5
729
330
6C
100
AcDbEntity
  8
0
  6
Continuous
 62
     1
100
AcDbLine
 10
9307.339253966377
 20
-4749.242970576379
 30
0.0
 11
9331.629253966385
 21
-4749.242970576379
 31
0.0
  0
LINE
  5
72A
330
6C
100
AcDbEntity
  8
0
  6
Continuous
 62
     1
100
AcDbLine
 10
9307.339253966377
 20
-4720.100470576377
 30
0.0
 11
9331.629253966385
 21
-4720.100470576377
 31
0.0
  0
LINE
  5
72B
330
6C
100
AcDbEntity
  8
0
  6
Continuous
 62
     1
100
AcDbLine
 10
9307.339253966377
 20
-4720.100470576377
 30
0.0
 11
9307.339253966377
 21
-4632.675470576359
 31
0.0
  0
LINE
  5
72C
330
6C
100
AcDbEntity
  8
0
  6
Continuous
 62
     1
100
AcDbLine
 10
9278.196753966389
 20
-4720.100470576377
 30
0.0
 11
9278.196753966389
 21
-4656.317970576361
 31
0.0
  0
CIRCLE
  5
72D
330
6C
100
AcDbEntity
  8
0
  6
Continuous
 62
     1
100
AcDbCircle
 10
9464.946753966389
 20
-4478.230470576374
 30
0.0
 40
7.0
  0
ARC
  5
72E
330
6C
100
AcDbEntity
  8
0
  6
Continuous
 62
     1
100
AcDbCircle
 10
9375.70175396638
 20
-4429.997970576368
 30
0.0
 40
38.8625
100
AcDbArc
 50
288.4057728510557
 51
66.49070629167221
  0
CIRCLE
  5
72F
330
6C
100
AcDbEntity
  8
0
  6
Continuous
 62
     1
100
AcDbCircle
 10
9436.38925396638
 20
-4633.305470576379
 30
0.0
 40
7.0
  0
CIRCLE
  5
730
330
6C
100
AcDbEntity
  8
0
  6
Continuous
 62
     1
100
AcDbCircle
 10
9467.956753966369
 20
-4398.980470576375
 30
0.0
 40
11.225
  0
CIRCLE
  5
731
330
6C
100
AcDbEntity
  8
0
  6
Continuous
 62
     1
100
AcDbCircle
 10
9454.164253966387
 20
-4556.630470576361
 30
0.0
 40
7.0
  0
CIRCLE
  5
732
330
6C
100
AcDbEntity
  8
0
  6
Continuous
 62
     1
100
AcDbCircle
 10
9411.751753966383
 20
-4707.305470576378
 30
0.0
 40
7.0
  0
ARC
  5
733
330
6C
100
AcDbEntity
  8
0
  6
Continuous
 62
     1
100
AcDbCircle
 10
9363.556753966376
 20
-4371.712970576373
 30
0.0
 40
10.9325
100
AcDbArc
 50
273.4158057078836
 51
59.52182739875866
  0
ARC
  5
734
330
6C
100
AcDbEntity
  8
0
  6
Continuous
 62
     1
100
AcDbCircle
 10
9363.556753966376
 20
-4429.997970576368
 30
0.0
 40
12.145
100
AcDbArc
 50
280.618215665626
 51
62.98343823592809
  0
CIRCLE
  5
735
330
6C
100
AcDbEntity
  8
0
  6
Continuous
 62
     1
100
AcDbCircle
 10
9343.11925396639
 20
-3953.305470576379
 30
0.0
 40
7.0
  0
LINE
  5
736
330
6C
100
AcDbEntity
  8
0
  6
Continuous
 62
     1
100
AcDbLine
 10
9312.209253966372
 20
-4170.055470576379
 30
0.0
 11
9312.209253966372
 21
-4145.762970576368
 31
0.0
  0
ARC
  5
737
330
6C
100
AcDbEntity
  8
0
  6
Continuous
 62
     1
100
AcDbCircle
 10
9270.921753966396
 20
-4072.887970576368
 30
0.0
 40
41.2875
100
AcDbArc
 50
299.1348389049051
 51
54.5279761524907
  0
ARC
  5
738
330
6C
100
AcDbEntity
  8
0
  6
Continuous
 62
     1
100
AcDbCircle
 10
9270.921753966396
 20
-4072.887970576368
 30
0.0
 40
14.57
100
AcDbArc
 50
299.0813474761237
 51
54.46802294078935
  0
CIRCLE
  5
739
330
6C
100
AcDbEntity
  8
0
  6
Continuous
 62
     1
100
AcDbCircle
 10
9411.751753966383
 20
-4090.655470576363
 30
0.0
 40
7.0
  0
CIRCLE
  5
73A
330
6C
100
AcDbEntity
  8
0
  6
Continuous
 62
     1
100
AcDbCircle
 10
9436.38925396638
 20
-4164.655470576362
 30
0.0
 40
7.0
  0
CIRCLE
  5
73B
330
6C
100
AcDbEntity
  8
0
  6
Continuous
 62
     1
100
AcDbCircle
 10
9454.164253966387
 20
-4241.330470576373
 30
0.0
 40
7.0
  0
CIRCLE
  5
73C
330
6C
100
AcDbEntity
  8
0
  6
Continuous
 62
     1
100
AcDbCircle
 10
9464.946753966389
 20
-4319.730470576367
 30
0.0
 40
7.0
  0
CIRCLE
  5
73D
330
6C
100
AcDbEntity
  8
0
  6
Continuous
 62
     1
100
AcDbCircle
 10
9380.076753966365
 20
-4020.205470576373
 30
0.0
 40
11.225
  0
CIRCLE
  5
73E
330
6C
100
AcDbEntity
  8
0
  6
Continuous
 62
     1
100
AcDbCircle
 10
9078.959253966372
 20
-3706.330470576374
 30
0.0
 40
7.0
  0
LINE
  5
73F
330
6C
100
AcDbEntity
  8
0
  6
Continuous
 62
     1
100
AcDbLine
 10
9059.971753966385
 20
-3820.71797057637
 30
0.0
 11
9074.541753966377
 21
-3820.71797057637
 31
0.0
  0
LINE
  5
740
330
6C
100
AcDbEntity
  8
0
  6
Continuous
 62
     1
100
AcDbLine
 10
9059.971753966385
 20
-3820.197970576373
 30
0.0
 11
9059.971753966385
 21
-3800.757970576378
 31
0.0
  0
LINE
  5
741
330
6C
100
AcDbEntity
  8
0
  6
Continuous
 62
     1
100
AcDbLine
 10
9079.066753966371
 20
-3781.877970576374
 30
0.0
 11
9098.48925396637
 21
-3781.877970576374
 31
0.0
  0
ARC
  5
742
330
6C
100
AcDbEntity
  8
0
  6
Continuous
 62
     1
100
AcDbCircle
 10
9045.681753966375
 20
-3767.242970576379
 30
0.0
 40
36.4375
100
AcDbArc
 50
293.0922483474367
 51
336.3287713059364
  0
CIRCLE
  5
743
330
6C
100
AcDbEntity
  8
0
  6
Continuous
 62
     1
100
AcDbCircle
 10
9014.786753966371
 20
-3677.905470576371
 30
0.0
 40
7.0
  0
CIRCLE
  5
744
330
6C
100
AcDbEntity
  8
0
  6
Continuous
 62
     1
100
AcDbCircle
 10
9197.886753966391
 20
-3785.655470576363
 30
0.0
 40
7.0
  0
CIRCLE
  5
745
330
6C
100
AcDbEntity
  8
0
  6
Continuous
 62
     1
100
AcDbCircle
 10
9139.929253966373
 20
-3742.905470576371
 30
0.0
 40
11.225
  0
CIRCLE
  5
746
330
6C
100
AcDbEntity
  8
0
  6
Continuous
 62
     1
100
AcDbCircle
 10
9251.256753966387
 20
-3835.505470576377
 30
0.0
 40
7.0
  0
CIRCLE
  5
747
330
6C
100
AcDbEntity
  8
0
  6
Continuous
 62
     1
100
AcDbCircle
 10
9299.839253966377
 20
-3891.65547057637
 30
0.0
 40
7.0
  0
LINE
  5
748
330
6C
100
AcDbEntity
  8
0
  6
Continuous
 62
     1
100
AcDbLine
 10
9269.961753966375
 20
-3852.180470576364
 30
0.0
 11
9285.29175396639
 21
-3869.880470576376
 31
0.0
  0
LINE
  5
749
330
6C
100
AcDbEntity
  8
4
100
AcDbLine
 10
9624.896753966373
 20
-5335.930470576364
 30
0.0
 11
9624.896753966373
 21
-3460.930470576364
 31
0.0
  0
LINE
  5
74A
330
6C
100
AcDbEntity
  8
4
100
AcDbLine
 10
9531.024253966375
 20
-5228.430470576364
 30
0.0
 11
9531.024253966375
 21
-3568.430470576365
 31
0.0
  0
LINE
  5
74B
330
6C
100
AcDbEntity
  8
4
100
AcDbLine
 10
9624.121753966392
 20
-5335.930470576364
 30
0.0
 11
9624.896753966373
 21
-5335.930470576364
 31
0.0
  0
LINE
  5
74C
330
6C
100
AcDbEntity
  8
4
100
AcDbLine
 10
9624.121753966392
 20
-3460.930470576364
 30
0.0
 11
9624.896753966373
 21
-3460.930470576364
 31
0.0
  0
LINE
  5
74D
330
6C
100
AcDbEntity
  8
4
100
AcDbLine
 10
8421.658398712155
 20
-3138.430470576379
 30
0.0
 11
8421.658398712155
 21
-3061.180470576379
 31
0.0
  0
LINE
  5
74E
330
6C
100
AcDbEntity
  8
4
100
AcDbLine
 10
8444.158398712142
 20
-3130.930470576365
 30
0.0
 11
8444.158398712142
 21
-3032.430470576379
 31
0.0
  0
LINE
  5
74F
330
6C
100
AcDbEntity
  8
4
100
AcDbLine
 10
8266.658398712142
 20
-3138.430470576379
 30
0.0
 11
8266.658398712142
 21
-3061.180470576379
 31
0.0
  0
LINE
  5
750
330
6C
100
AcDbEntity
  8
4
100
AcDbLine
 10
8244.158398712157
 20
-3130.930470576365
 30
0.0
 11
8244.158398712157
 21
-3032.430470576379
 31
0.0
  0
LINE
  5
751
330
6C
100
AcDbEntity
  8
4
100
AcDbLine
 10
8251.658398712141
 20
-3138.430470576379
 30
0.0
 11
8436.658398712156
 21
-3138.430470576408
 31
0.0
  0
LINE
  5
752
330
6C
100
AcDbEntity
  8
5
100
AcDbLine
 10
8375.908398712155
 20
-3453.430470576364
 30
0.0
 11
8375.908398712155
 21
-3290.930470576365
 31
0.0
  0
LINE
  5
753
330
6C
100
AcDbEntity
  8
5
100
AcDbLine
 10
8312.408398712141
 20
-3453.430470576364
 30
0.0
 11
8312.408398712141
 21
-3290.930470576365
 31
0.0
  0
LINE
  5
754
330
6C
100
AcDbEntity
  8
4
100
AcDbLine
 10
8271.497281441872
 20
-3175.930470576379
 30
0.0
 11
8291.817943893446
 21
-3175.930470576379
 31
0.0
  0
ARC
  5
755
330
6C
100
AcDbEntity
  8
4
100
AcDbCircle
 10
8271.498853530836
 20
-3173.430470576379
 30
0.0
 40
2.5
100
AcDbArc
 50
181.7825420803777
 51
270.0
1001
GENIUS_GENODEF_13
1002
{
1000
HIER
1070
     0
1002
}
1002
{
1000
MANEDIT
1070
     0
1002
}
1002
{
1000
NOSEL
1070
     0
1002
}
1002
{
1000
BEHIND
1070
     0
1002
}
1002
{
1000
REACTOR
1002
}
1001
GENIUS_GENOBJ-N-FIL_13
1002
{
1000
OWNER
1000
GEN
1002
}
  0
LINE
  5
756
330
6C
100
AcDbEntity
  8
4
100
AcDbLine
 10
8269.000063318904
 20
-3173.508236100869
 30
0.0
 11
8267.983781724892
 21
-3140.85270505189
 31
0.0
  0
ARC
  5
757
330
6C
100
AcDbEntity
  8
4
100
AcDbCircle
 10
8265.484991512989
 20
-3140.930470576379
 30
0.0
 40
2.5
100
AcDbArc
 50
1.782542080377738
 51
90.0
1001
GENIUS_GENODEF_13
1002
{
1000
HIER
1070
     0
1002
}
1002
{
1000
MANEDIT
1070
     0
1002
}
1002
{
1000
NOSEL
1070
     0
1002
}
1002
{
1000
BEHIND
1070
     0
1002
}
1002
{
1000
REACTOR
1002
}
1001
GENIUS_GENOBJ-N-FIL_13
1002
{
1000
OWNER
1000
GEN
1002
}
  0
ARC
  5
758
330
6C
100
AcDbEntity
  8
4
100
AcDbCircle
 10
8251.658398712141
 20
-3130.930470576365
 30
0.0
 40
7.5
100
AcDbArc
 50
180.0
 51
270.0
1001
GENIUS_GENODEF_13
1002
{
1000
HIER
1070
     0
1002
}
1002
{
1000
MANEDIT
1070
     0
1002
}
1002
{
1000
NOSEL
1070
     0
1002
}
1002
{
1000
BEHIND
1070
     0
1002
}
1002
{
1000
REACTOR
1002
}
1001
GENIUS_GENOBJ-N-FIL_13
1002
{
1000
OWNER
1000
GEN
1002
}
  0
LINE
  5
759
330
6C
100
AcDbEntity
  8
4
100
AcDbLine
 10
8383.658398712155
 20
-3290.930470576365
 30
0.0
 11
8383.658398712155
 21
-3150.930470576364
 31
0.0
  0
LINE
  5
75A
330
6C
100
AcDbEntity
  8
4
100
AcDbLine
 10
8370.408398712156
 20
-3290.930470576365
 30
0.0
 11
8370.408398712156
 21
-3228.430470576365
 31
0.0
  0
LINE
  5
75B
330
6C
100
AcDbEntity
  8
4
100
AcDbLine
 10
8304.65839871214
 20
-3290.930470576365
 30
0.0
 11
8304.65839871214
 21
-3150.930470576379
 31
0.0
  0
LINE
  5
75C
330
6C
100
AcDbEntity
  8
4
100
AcDbLine
 10
8317.908398712141
 20
-3290.930470576365
 30
0.0
 11
8317.908398712141
 21
-3228.430470576379
 31
0.0
  0
LINE
  5
75D
330
6C
100
AcDbEntity
  8
4
100
AcDbLine
 10
8304.65839871214
 20
-3290.930470576365
 30
0.0
 11
8383.658398712155
 21
-3290.930470576365
 31
0.0
  0
LINE
  5
75E
330
6C
100
AcDbEntity
  8
4
100
AcDbLine
 10
8365.408398712141
 20
-3228.430470576365
 30
0.0
 11
8365.408398712141
 21
-3138.430470576379
 31
0.0
  0
ARC
  5
75F
330
6C
100
AcDbEntity
  8
4
100
AcDbCircle
 10
8396.158398712156
 20
-3150.930470576364
 30
0.0
 40
12.5
100
AcDbArc
 50
90.0
 51
180.0
1001
GENIUS_GENODEF_13
1002
{
1000
HIER
1070
     0
1002
}
1002
{
1000
MANEDIT
1070
     0
1002
}
1002
{
1000
NOSEL
1070
     0
1002
}
1002
{
1000
BEHIND
1070
     0
1002
}
1002
{
1000
REACTOR
1002
}
1001
GENIUS_GENOBJ-N-FIL_13
1002
{
1000
OWNER
1000
GEN
1002
}
  0
ARC
  5
760
330
6C
100
AcDbEntity
  8
4
100
AcDbCircle
 10
8291.817943893446
 20
-3173.430470576379
 30
0.0
 40
2.5
100
AcDbArc
 50
270.0
 51
358.2174579192056
1001
GENIUS_GENODEF_13
1002
{
1000
HIER
1070
     0
1002
}
1002
{
1000
MANEDIT
1070
     0
1002
}
1002
{
1000
NOSEL
1070
     0
1002
}
1002
{
1000
BEHIND
1070
     0
1002
}
1002
{
1000
REACTOR
1002
}
1001
GENIUS_GENOBJ-N-FIL_13
1002
{
1000
OWNER
1000
GEN
1002
}
  0
LINE
  5
761
330
6C
100
AcDbEntity
  8
4
100
AcDbLine
 10
8322.908398712142
 20
-3228.430470576365
 30
0.0
 11
8322.908398712142
 21
-3138.430470576379
 31
0.0
  0
LINE
  5
762
330
6C
100
AcDbEntity
  8
4
100
AcDbLine
 10
8294.316734105363
 20
-3173.508236100869
 30
0.0
 11
8295.333015699375
 21
-3140.85270505189
 31
0.0
  0
ARC
  5
763
330
6C
100
AcDbEntity
  8
4
100
AcDbCircle
 10
8297.831805911307
 20
-3140.930470576386
 30
0.0
 40
2.5
100
AcDbArc
 50
90.0
 51
178.2174579196222
1001
GENIUS_GENODEF_13
1002
{
1000
HIER
1070
     0
1002
}
1002
{
1000
MANEDIT
1070
     0
1002
}
1002
{
1000
NOSEL
1070
     0
1002
}
1002
{
1000
BEHIND
1070
     0
1002
}
1002
{
1000
REACTOR
1002
}
1001
GENIUS_GENOBJ-N-FIL_13
1002
{
1000
OWNER
1000
GEN
1002
}
  0
ARC
  5
764
330
6C
100
AcDbEntity
  8
4
100
AcDbCircle
 10
8292.158398712157
 20
-3150.930470576379
 30
0.0
 40
12.5
100
AcDbArc
 50
0.0
 51
71.39392616499697
1001
GENIUS_GENODEF_13
1002
{
1000
HIER
1070
     0
1002
}
1002
{
1000
MANEDIT
1070
     0
1002
}
1002
{
1000
NOSEL
1070
     0
1002
}
1002
{
1000
BEHIND
1070
     0
1002
}
1002
{
1000
REACTOR
1002
}
1001
GENIUS_GENOBJ-N-FIL_13
1002
{
1000
OWNER
1000
GEN
1002
}
  0
LINE
  5
765
330
6C
100
AcDbEntity
  8
4
100
AcDbLine
 10
8304.65839871214
 20
-3190.930470576365
 30
0.0
 11
8383.658398712155
 21
-3190.930470576365
 31
0.0
  0
LINE
  5
766
330
6C
100
AcDbEntity
  8
4
100
AcDbLine
 10
8317.908398712141
 20
-3228.430470576365
 30
0.0
 11
8370.408398712156
 21
-3228.430470576365
 31
0.0
  0
ARC
  5
767
330
6C
100
AcDbEntity
  8
4
100
AcDbCircle
 10
8436.658398712156
 20
-3130.930470576365
 30
0.0
 40
7.5
100
AcDbArc
 50
270.0
 51
0.0
1001
GENIUS_GENODEF_13
1002
{
1000
HIER
1070
     0
1002
}
1002
{
1000
MANEDIT
1070
     0
1002
}
1002
{
1000
NOSEL
1070
     0
1002
}
1002
{
1000
BEHIND
1070
     0
1002
}
1002
{
1000
REACTOR
1002
}
1001
GENIUS_GENOBJ-N-FIL_13
1002
{
1000
OWNER
1000
GEN
1002
}
  0
LINE
  5
768
330
6C
100
AcDbEntity
  8
4
100
AcDbLine
 10
8444.158398712156
 20
-2928.430470576365
 30
0.0
 11
8406.658398712156
 21
-2903.430470576365
 31
0.0
  0
LINE
  5
769
330
6C
100
AcDbEntity
  8
4
100
AcDbLine
 10
8373.427022826989
 20
-2864.016690906079
 30
0.0
 11
8478.472528902464
 21
-2776.72932157341
 31
0.0
  0
LINE
  5
76A
330
6C
100
AcDbEntity
  8
4
100
AcDbLine
 10
8502.021450122295
 20
-2748.032443530974
 30
0.0
 11
8334.250342489701
 21
-2508.430470576364
 31
0.0
  0
LINE
  5
76B
330
6C
100
AcDbEntity
  8
4
100
AcDbLine
 10
8498.744841945139
 20
-2750.326749276377
 30
0.0
 11
8330.973734312545
 21
-2510.724776321775
 31
0.0
  0
LINE
  5
76C
330
6C
100
AcDbEntity
  8
4
100
AcDbLine
 10
8244.158398712157
 20
-3030.930470576379
 30
0.0
 11
8444.158398712142
 21
-3030.930470576365
 31
0.0
  0
LINE
  5
76D
330
6C
100
AcDbEntity
  8
4
100
AcDbLine
 10
8244.158398712157
 20
-3032.430470576379
 30
0.0
 11
8444.158398712142
 21
-3032.430470576379
 31
0.0
  0
LINE
  5
76E
330
6C
100
AcDbEntity
  8
4
100
AcDbLine
 10
8435.830362752168
 20
-2737.003536198041
 30
0.0
 11
8195.151549399176
 21
-2905.528655595168
 31
0.0
  0
LINE
  5
76F
330
6C
100
AcDbEntity
  8
4
100
AcDbLine
 10
8513.900429804591
 20
-2748.870501826889
 30
0.0
 11
8193.14848437153
 21
-2973.463431914541
 31
0.0
  0
LINE
  5
770
330
6C
100
AcDbEntity
  8
4
100
AcDbLine
 10
8509.598606531959
 20
-2742.726861494717
 30
0.0
 11
8188.846661098898
 21
-2967.319791582384
 31
0.0
  0
LINE
  5
771
330
6C
100
AcDbEntity
  8
4
100
AcDbLine
 10
8244.158398712157
 20
-3030.930470576379
 30
0.0
 11
8244.158398712157
 21
-2937.745905369812
 31
0.0
  0
ARC
  5
772
330
6C
100
AcDbEntity
  8
4
100
AcDbCircle
 10
8264.15839871214
 20
-3061.180470576379
 30
0.0
 40
2.5
100
AcDbArc
 50
0.0
 51
90.0
1001
GENIUS_GENODEF_13
1002
{
1000
HIER
1070
     0
1002
}
1002
{
1000
MANEDIT
1070
     0
1002
}
1002
{
1000
NOSEL
1070
     0
1002
}
1002
{
1000
BEHIND
1070
     0
1002
}
1002
{
1000
REACTOR
1002
}
1001
GENIUS_GENOBJ-N-FIL_13
1002
{
1000
OWNER
1000
GEN
1002
}
  0
ARC
  5
773
330
6C
100
AcDbEntity
  8
4
100
AcDbCircle
 10
8246.65839871214
 20
-3056.180470576379
 30
0.0
 40
2.5
100
AcDbArc
 50
180.0
 51
270.0
1001
GENIUS_GENODEF_13
1002
{
1000
HIER
1070
     0
1002
}
1002
{
1000
MANEDIT
1070
     0
1002
}
1002
{
1000
NOSEL
1070
     0
1002
}
1002
{
1000
BEHIND
1070
     0
1002
}
1002
{
1000
REACTOR
1002
}
1001
GENIUS_GENOBJ-N-FIL_13
1002
{
1000
OWNER
1000
GEN
1002
}
  0
LINE
  5
774
330
6C
100
AcDbEntity
  8
4
100
AcDbLine
 10
8245.658398712143
 20
-3032.430470576379
 30
0.0
 11
8245.658398712143
 21
-3030.930470576379
 31
0.0
  0
LINE
  5
775
330
6C
100
AcDbEntity
  8
4
100
AcDbLine
 10
8246.65839871214
 20
-3058.680470576379
 30
0.0
 11
8264.15839871214
 21
-3058.680470576379
 31
0.0
  0
ARC
  5
776
330
6C
100
AcDbEntity
  8
4
100
AcDbCircle
 10
8264.15839871214
 20
-2983.430470576379
 30
0.0
 40
2.5
100
AcDbArc
 50
270.0
 51
0.0
1001
GENIUS_GENODEF_13
1002
{
1000
HIER
1070
     0
1002
}
1002
{
1000
MANEDIT
1070
     0
1002
}
1002
{
1000
NOSEL
1070
     0
1002
}
1002
{
1000
BEHIND
1070
     0
1002
}
1002
{
1000
REACTOR
1002
}
1001
GENIUS_GENOBJ-N-FIL_13
1002
{
1000
OWNER
1000
GEN
1002
}
  0
LINE
  5
777
330
6C
100
AcDbEntity
  8
4
100
AcDbLine
 10
8266.658398712142
 20
-2983.430470576379
 30
0.0
 11
8266.658398712142
 21
-2921.991235760106
 31
0.0
  0
ARC
  5
778
330
6C
100
AcDbEntity
  8
4
100
AcDbCircle
 10
8246.65839871214
 20
-2988.430470576379
 30
0.0
 40
2.5
100
AcDbArc
 50
90.0
 51
180.0
1001
GENIUS_GENODEF_13
1002
{
1000
HIER
1070
     0
1002
}
1002
{
1000
MANEDIT
1070
     0
1002
}
1002
{
1000
NOSEL
1070
     0
1002
}
1002
{
1000
BEHIND
1070
     0
1002
}
1002
{
1000
REACTOR
1002
}
1001
GENIUS_GENOBJ-N-FIL_13
1002
{
1000
OWNER
1000
GEN
1002
}
  0
LINE
  5
779
330
6C
100
AcDbEntity
  8
4
100
AcDbLine
 10
8246.65839871214
 20
-2985.930470576379
 30
0.0
 11
8264.15839871214
 21
-2985.930470576379
 31
0.0
  0
LINE
  5
77A
330
6C
100
AcDbEntity
  8
4
100
AcDbLine
 10
8201.135216803349
 20
-2967.871061660131
 30
0.0
 11
8196.833393530717
 21
-2961.727421327953
 31
0.0
  0
LINE
  5
77B
330
6C
100
AcDbEntity
  8
4
100
AcDbLine
 10
8200.31606475907
 20
-2968.444638096494
 30
0.0
 11
8196.014241486423
 21
-2962.300997764316
 31
0.0
  0
LINE
  5
77C
330
6C
100
AcDbEntity
  8
4
100
AcDbLine
 10
8193.14848437153
 20
-2973.463431914541
 30
0.0
 11
8184.882579572279
 21
-2961.658496451579
 31
0.0
  0
ARC
  5
77D
330
6C
100
AcDbEntity
  8
4
100
AcDbCircle
 10
8199.453372671822
 20
-2911.672295927339
 30
0.0
 40
7.5
100
AcDbArc
 50
125.0000000008309
 51
170.0000000000081
1001
GENIUS_GENODEF_13
1002
{
1000
HIER
1070
     0
1002
}
1002
{
1000
MANEDIT
1070
     0
1002
}
1002
{
1000
NOSEL
1070
     0
1002
}
1002
{
1000
BEHIND
1070
     0
1002
}
1002
{
1000
REACTOR
1002
}
1001
GENIUS_GENOBJ-N-FIL_13
1002
{
1000
OWNER
1000
GEN
1002
}
  0
ARC
  5
77E
330
6C
100
AcDbEntity
  8
4
100
AcDbCircle
 10
8190.002279849068
 20
-2958.07364372439
 30
0.0
 40
6.25
100
AcDbArc
 50
170.0000000000081
 51
214.9999999997892
1001
GENIUS_GENODEF_13
1002
{
1000
HIER
1070
     0
1002
}
1002
{
1000
MANEDIT
1070
     0
1002
}
1002
{
1000
NOSEL
1070
     0
1002
}
1002
{
1000
BEHIND
1070
     0
1002
}
1002
{
1000
REACTOR
1002
}
1001
GENIUS_GENOBJ-N-FIL_13
1002
{
1000
OWNER
1000
GEN
1002
}
  0
LINE
  5
77F
330
6C
100
AcDbEntity
  8
4
100
AcDbLine
 10
8192.067314524217
 20
-2910.369934594841
 30
0.0
 11
8183.847231392778
 21
-2956.988342613957
 31
0.0
1001
GENIUS_GENFIL_13
1070
     0
1040
15.0
1040
15.0
1040
20.0
1040
0.0
1002
{
1002
}
1001
GENIUS_GENODEF_13
1002
{
1000
HIER
1070
     0
1002
}
1002
{
1000
MANEDIT
1070
     0
1002
}
1002
{
1000
NOSEL
1070
     0
1002
}
1002
{
1000
BEHIND
1070
     0
1002
}
1002
{
1000
REACTOR
1002
}
1001
GENIUS_GENOBJ-N-CHA_13
1002
{
1000
OWNER
1000
GEN
1002
}
  0
LINE
  5
780
330
6C
100
AcDbEntity
  8
4
100
AcDbLine
 10
8208.507585201951
 20
-2962.708873732962
 30
0.0
 11
8204.205761929319
 21
-2956.565233400798
 31
0.0
  0
LINE
  5
781
330
6C
100
AcDbEntity
  8
4
100
AcDbLine
 10
8207.688433157674
 20
-2963.282450169318
 30
0.0
 11
8203.386609885056
 21
-2957.138809837154
 31
0.0
  0
LINE
  5
782
330
6C
100
AcDbEntity
  8
4
100
AcDbLine
 10
8414.158398712157
 20
-2900.930470576364
 30
0.0
 11
8414.158398712157
 21
-2908.430470576364
 31
0.0
  0
LINE
  5
783
330
6C
100
AcDbEntity
  8
4
100
AcDbLine
 10
8406.658398712156
 20
-2900.930470576379
 30
0.0
 11
8373.427022826989
 21
-2864.016690906079
 31
0.0
  0
LINE
  5
784
330
6C
100
AcDbEntity
  8
4
100
AcDbLine
 10
8293.165918512896
 20
-2903.430470576379
 30
0.0
 11
8406.658398712156
 21
-2903.430470576365
 31
0.0
  0
LINE
  5
785
330
6C
100
AcDbEntity
  8
4
100
AcDbLine
 10
8296.736288529748
 20
-2900.930470576379
 30
0.0
 11
8414.158398712157
 21
-2900.930470576379
 31
0.0
  0
LINE
  5
786
330
6C
100
AcDbEntity
  8
4
100
AcDbLine
 10
8334.250342489701
 20
-2508.430470576364
 30
0.0
 11
8330.973734312545
 21
-2510.724776321775
 31
0.0
  0
LINE
  5
787
330
6C
100
AcDbEntity
  8
4
100
AcDbLine
 10
8513.900429804591
 20
-2748.870501826889
 30
0.0
 11
8509.598606531858
 21
-2742.726861494564
 31
0.0
  0
LINE
  5
788
330
6C
100
AcDbEntity
  8
4
100
AcDbLine
 10
8501.408361129186
 20
-2757.617542481247
 30
0.0
 11
8497.106537856554
 21
-2751.473902149082
 31
0.0
  0
LINE
  5
789
330
6C
100
AcDbEntity
  8
4
100
AcDbLine
 10
8500.589209084894
 20
-2758.191118917588
 30
0.0
 11
8496.287385812262
 21
-2752.047478585417
 31
0.0
  0
LINE
  5
78A
330
6C
100
AcDbEntity
  8
4
100
AcDbLine
 10
8507.961577483497
 20
-2753.02893099044
 30
0.0
 11
8503.659754210865
 21
-2746.885290658262
 31
0.0
  0
LINE
  5
78B
330
6C
100
AcDbEntity
  8
4
100
AcDbLine
 10
8508.780729527774
 20
-2752.455354554077
 30
0.0
 11
8504.478906255156
 21
-2746.311714221906
 31
0.0
  0
LINE
  5
78C
330
6C
100
AcDbEntity
  8
4
100
AcDbLine
 10
8493.162920592382
 20
-2763.391062100978
 30
0.0
 11
8488.86109731975
 21
-2757.247421768814
 31
0.0
  0
LINE
  5
78D
330
6C
100
AcDbEntity
  8
4
100
AcDbLine
 10
8492.343768548089
 20
-2763.964638537335
 30
0.0
 11
8488.041945275458
 21
-2757.820998205164
 31
0.0
  0
LINE
  5
78E
330
6C
100
AcDbEntity
  8
4
100
AcDbLine
 10
8484.971400149502
 20
-2769.12682646449
 30
0.0
 11
8480.669576876854
 21
-2762.983186132333
 31
0.0
  0
LINE
  5
78F
330
6C
100
AcDbEntity
  8
4
100
AcDbLine
 10
8485.790552193765
 20
-2768.553250028141
 30
0.0
 11
8481.488728921148
 21
-2762.409609695977
 31
0.0
  0
ARC
  5
790
330
6C
100
AcDbEntity
  8
4
100
AcDbCircle
 10
8486.928960327118
 20
-2750.129427184962
 30
0.0
 40
6.25
100
AcDbArc
 50
34.99999999978924
 51
79.99999999952518
1001
GENIUS_GENODEF_13
1002
{
1000
HIER
1070
     0
1002
}
1002
{
1000
MANEDIT
1070
     0
1002
}
1002
{
1000
NOSEL
1070
     0
1002
}
1002
{
1000
BEHIND
1070
     0
1002
}
1002
{
1000
REACTOR
1002
}
1001
GENIUS_GENOBJ-N-FIL_13
1002
{
1000
OWNER
1000
GEN
1002
}
  0
LINE
  5
791
330
6C
100
AcDbEntity
  8
4
100
AcDbLine
 10
8478.472528902464
 20
-2776.72932157341
 30
0.0
 11
8477.038587811577
 21
-2774.681441462686
 31
0.0
  0
LINE
  5
792
330
6C
100
AcDbEntity
  8
4
100
AcDbLine
 10
8496.028677707277
 20
-2752.228627950746
 30
0.0
 11
8492.048660603904
 21
-2746.544574457774
 31
0.0
  0
LINE
  5
793
330
6C
100
AcDbEntity
  8
4
100
AcDbLine
 10
8444.158398712142
 20
-3030.930470576365
 30
0.0
 11
8444.158398712156
 21
-2928.430470576379
 31
0.0
  0
LINE
  5
794
330
6C
100
AcDbEntity
  8
4
100
AcDbLine
 10
8441.658398712155
 20
-3058.680470576379
 30
0.0
 11
8424.158398712142
 21
-3058.680470576379
 31
0.0
  0
ARC
  5
795
330
6C
100
AcDbEntity
  8
4
100
AcDbCircle
 10
8424.158398712142
 20
-3061.180470576379
 30
0.0
 40
2.5
100
AcDbArc
 50
90.0
 51
180.0
1001
GENIUS_GENODEF_13
1002
{
1000
HIER
1070
     0
1002
}
1002
{
1000
MANEDIT
1070
     0
1002
}
1002
{
1000
NOSEL
1070
     0
1002
}
1002
{
1000
BEHIND
1070
     0
1002
}
1002
{
1000
REACTOR
1002
}
1001
GENIUS_GENOBJ-N-FIL_13
1002
{
1000
OWNER
1000
GEN
1002
}
  0
ARC
  5
796
330
6C
100
AcDbEntity
  8
4
100
AcDbCircle
 10
8441.658398712155
 20
-3056.180470576379
 30
0.0
 40
2.5
100
AcDbArc
 50
270.0
 51
0.0
1001
GENIUS_GENODEF_13
1002
{
1000
HIER
1070
     0
1002
}
1002
{
1000
MANEDIT
1070
     0
1002
}
1002
{
1000
NOSEL
1070
     0
1002
}
1002
{
1000
BEHIND
1070
     0
1002
}
1002
{
1000
REACTOR
1002
}
1001
GENIUS_GENOBJ-N-FIL_13
1002
{
1000
OWNER
1000
GEN
1002
}
  0
LINE
  5
797
330
6C
100
AcDbEntity
  8
4
100
AcDbLine
 10
8442.658398712156
 20
-3032.430470576379
 30
0.0
 11
8442.658398712156
 21
-3030.930470576365
 31
0.0
  0
LINE
  5
798
330
6C
100
AcDbEntity
  8
4
100
AcDbLine
 10
8441.658398712155
 20
-2985.930470576379
 30
0.0
 11
8424.158398712156
 21
-2985.930470576379
 31
0.0
  0
LINE
  5
799
330
6C
100
AcDbEntity
  8
4
100
AcDbLine
 10
8421.658398712155
 20
-2983.430470576379
 30
0.0
 11
8421.658398712155
 21
-2913.430470576365
 31
0.0
  0
ARC
  5
79A
330
6C
100
AcDbEntity
  8
4
100
AcDbCircle
 10
8424.158398712156
 20
-2983.430470576379
 30
0.0
 40
2.5
100
AcDbArc
 50
180.0
 51
270.0
1001
GENIUS_GENODEF_13
1002
{
1000
HIER
1070
     0
1002
}
1002
{
1000
MANEDIT
1070
     0
1002
}
1002
{
1000
NOSEL
1070
     0
1002
}
1002
{
1000
BEHIND
1070
     0
1002
}
1002
{
1000
REACTOR
1002
}
1001
GENIUS_GENOBJ-N-FIL_13
1002
{
1000
OWNER
1000
GEN
1002
}
  0
ARC
  5
79B
330
6C
100
AcDbEntity
  8
4
100
AcDbCircle
 10
8441.658398712155
 20
-2988.430470576379
 30
0.0
 40
2.5
100
AcDbArc
 50
0.0
 51
90.0
1001
GENIUS_GENODEF_13
1002
{
1000
HIER
1070
     0
1002
}
1002
{
1000
MANEDIT
1070
     0
1002
}
1002
{
1000
NOSEL
1070
     0
1002
}
1002
{
1000
BEHIND
1070
     0
1002
}
1002
{
1000
REACTOR
1002
}
1001
GENIUS_GENOBJ-N-FIL_13
1002
{
1000
OWNER
1000
GEN
1002
}
  0
ARC
  5
79C
330
6C
100
AcDbEntity
  8
4
100
AcDbCircle
 10
8440.132186024799
 20
-2743.147176530205
 30
0.0
 40
7.5
100
AcDbArc
 50
79.99999999952518
 51
125.0000000008309
1001
GENIUS_GENODEF_13
1002
{
1000
HIER
1070
     0
1002
}
1002
{
1000
MANEDIT
1070
     0
1002
}
1002
{
1000
NOSEL
1070
     0
1002
}
1002
{
1000
BEHIND
1070
     0
1002
}
1002
{
1000
REACTOR
1002
}
1001
GENIUS_GENOBJ-N-FIL_13
1002
{
1000
OWNER
1000
GEN
1002
}
  0
LINE
  5
79D
330
6C
100
AcDbEntity
  8
4
100
AcDbLine
 10
8441.434547357305
 20
-2735.761118382609
 30
0.0
 11
8488.014261437522
 21
-2743.974378728643
 31
0.0
1001
GENIUS_GENFIL_13
1070
     0
1040
15.0
1040
15.0
1040
20.0
1040
0.0
1002
{
1002
}
1001
GENIUS_GENODEF_13
1002
{
1000
HIER
1070
     0
1002
}
1002
{
1000
MANEDIT
1070
     0
1002
}
1002
{
1000
NOSEL
1070
     0
1002
}
1002
{
1000
BEHIND
1070
     0
1002
}
1002
{
1000
REACTOR
1002
}
1001
GENIUS_GENOBJ-N-CHA_13
1002
{
1000
OWNER
1000
GEN
1002
}
  0
LINE
  5
79E
330
6C
100
AcDbEntity
  8
4
100
AcDbLine
 10
2009.472899053042
 20
-3032.430470576408
 30
0.0
 11
2009.472899053042
 21
-3130.930470576408
 31
0.0
1001
GENIUS_GENODEF_13
1002
{
1000
HIER
1070
     0
1002
}
1002
{
1000
MANEDIT
1070
     0
1002
}
1002
{
1000
NOSEL
1070
     0
1002
}
1002
{
1000
BEHIND
1070
     0
1002
}
1002
{
1000
REACTOR
1002
}
1001
GENIUS_GENOBJ-N-CEN_13
1002
{
1000
OWNER
1000
GEN
1002
}
  0
LINE
  5
79F
330
6C
100
AcDbEntity
  8
4
100
AcDbLine
 10
2031.972899053042
 20
-3138.430470576379
 30
0.0
 11
2031.972899053042
 21
-3061.180470576379
 31
0.0
  0
LINE
  5
7A0
330
6C
100
AcDbEntity
  8
4
100
AcDbLine
 10
2186.972899053042
 20
-3138.430470576379
 30
0.0
 11
2186.972899053042
 21
-3061.180470576379
 31
0.0
  0
LINE
  5
7A1
330
6C
100
AcDbEntity
  8
4
100
AcDbLine
 10
2209.472899053042
 20
-3032.430470576408
 30
0.0
 11
2209.472899053042
 21
-3130.930470576394
 31
0.0
1001
GENIUS_GENODEF_13
1002
{
1000
HIER
1070
     0
1002
}
1002
{
1000
MANEDIT
1070
     0
1002
}
1002
{
1000
NOSEL
1070
     0
1002
}
1002
{
1000
BEHIND
1070
     0
1002
}
1002
{
1000
REACTOR
1002
}
1001
GENIUS_GENOBJ-N-CEN_13
1002
{
1000
OWNER
1000
GEN
1002
}
  0
LINE
  5
7A2
330
6C
100
AcDbEntity
  8
4
100
AcDbLine
 10
2201.972899053042
 20
-3138.430470576386
 30
0.0
 11
2016.972899053042
 21
-3138.430470576393
 31
0.0
  0
ARC
  5
7A3
330
6C
100
AcDbEntity
  8
4
100
AcDbCircle
 10
2016.972899053042
 20
-3130.930470576408
 30
0.0
 40
7.5
100
AcDbArc
 50
180.0
 51
270.0
1001
GENIUS_GENODEF_13
1002
{
1000
HIER
1070
     0
1002
}
1002
{
1000
MANEDIT
1070
     0
1002
}
1002
{
1000
NOSEL
1070
     0
1002
}
1002
{
1000
BEHIND
1070
     0
1002
}
1002
{
1000
REACTOR
1002
}
1001
GENIUS_GENOBJ-N-FIL_13
1002
{
1000
OWNER
1000
GEN
1002
}
  0
ARC
  5
7A4
330
6C
100
AcDbEntity
  8
4
100
AcDbCircle
 10
2154.632444234346
 20
-3173.430470576408
 30
0.0
 40
2.5
100
AcDbArc
 50
270.0
 51
358.2174579192056
1001
GENIUS_GENODEF_13
1002
{
1000
HIER
1070
     0
1002
}
1002
{
1000
MANEDIT
1070
     0
1002
}
1002
{
1000
NOSEL
1070
     0
1002
}
1002
{
1000
BEHIND
1070
     0
1002
}
1002
{
1000
REACTOR
1002
}
1001
GENIUS_GENOBJ-N-FIL_13
1002
{
1000
OWNER
1000
GEN
1002
}
  0
ARC
  5
7A5
330
6C
100
AcDbEntity
  8
4
100
AcDbCircle
 10
2134.313353871737
 20
-3173.430470576408
 30
0.0
 40
2.5
100
AcDbArc
 50
181.7825420803777
 51
270.0
1001
GENIUS_GENODEF_13
1002
{
1000
HIER
1070
     0
1002
}
1002
{
1000
MANEDIT
1070
     0
1002
}
1002
{
1000
NOSEL
1070
     0
1002
}
1002
{
1000
BEHIND
1070
     0
1002
}
1002
{
1000
REACTOR
1002
}
1001
GENIUS_GENOBJ-N-FIL_13
1002
{
1000
OWNER
1000
GEN
1002
}
  0
LINE
  5
7A6
330
6C
100
AcDbEntity
  8
4
100
AcDbLine
 10
2158.722899053028
 20
-3228.430470576394
 30
0.0
 11
2158.722899053028
 21
-3290.930470576394
 31
0.0
1001
GENIUS_GENODEF_13
1002
{
1000
HIER
1070
     0
1002
}
1002
{
1000
MANEDIT
1070
     0
1002
}
1002
{
1000
NOSEL
1070
     0
1002
}
1002
{
1000
BEHIND
1070
     0
1002
}
1002
{
1000
REACTOR
1002
}
1001
GENIUS_GENOBJ-N-CEN_13
1002
{
1000
OWNER
1000
GEN
1002
}
  0
LINE
  5
7A7
330
6C
100
AcDbEntity
  8
4
100
AcDbLine
 10
2154.972899053028
 20
-3190.930470576394
 30
0.0
 11
2155.698552104499
 21
-3175.691756495798
 31
0.0
  0
LINE
  5
7A8
330
6C
100
AcDbEntity
  8
4
100
AcDbLine
 10
2142.472899053042
 20
-3190.930470576394
 30
0.0
 11
2143.187184767318
 21
-3175.930470576408
 31
0.0
  0
LINE
  5
7A9
330
6C
100
AcDbEntity
  8
4
100
AcDbLine
 10
2134.311781782773
 20
-3175.930470576408
 30
0.0
 11
2154.632444234346
 21
-3175.930470576408
 31
0.0
  0
LINE
  5
7AA
330
6C
100
AcDbEntity
  8
4
100
AcDbLine
 10
2154.972899053028
 20
-3190.930470576394
 30
0.0
 11
2154.972899053028
 21
-3228.430470576394
 31
0.0
1001
GENIUS_GENODEF_13
1002
{
1000
HIER
1070
     0
1002
}
1002
{
1000
MANEDIT
1070
     0
1002
}
1002
{
1000
NOSEL
1070
     0
1002
}
1002
{
1000
BEHIND
1070
     0
1002
}
1002
{
1000
REACTOR
1002
}
1001
GENIUS_GENOBJ-N-CEN_13
1002
{
1000
OWNER
1000
GEN
1002
}
  0
LINE
  5
7AB
330
6C
100
AcDbEntity
  8
4
100
AcDbLine
 10
2144.972899053042
 20
-3228.430470576394
 30
0.0
 11
2144.972899053042
 21
-3290.930470576394
 31
0.0
1001
GENIUS_GENODEF_13
1002
{
1000
HIER
1070
     0
1002
}
1002
{
1000
MANEDIT
1070
     0
1002
}
1002
{
1000
NOSEL
1070
     0
1002
}
1002
{
1000
BEHIND
1070
     0
1002
}
1002
{
1000
REACTOR
1002
}
1001
GENIUS_GENOBJ-N-CEN_13
1002
{
1000
OWNER
1000
GEN
1002
}
  0
LINE
  5
7AC
330
6C
100
AcDbEntity
  8
4
100
AcDbLine
 10
2142.472899053042
 20
-3190.930470576394
 30
0.0
 11
2142.472899053042
 21
-3290.930470576394
 31
0.0
1001
GENIUS_GENODEF_13
1002
{
1000
HIER
1070
     0
1002
}
1002
{
1000
MANEDIT
1070
     0
1002
}
1002
{
1000
NOSEL
1070
     0
1002
}
1002
{
1000
BEHIND
1070
     0
1002
}
1002
{
1000
REACTOR
1002
}
1001
GENIUS_GENOBJ-N-CEN_13
1002
{
1000
OWNER
1000
GEN
1002
}
  0
LINE
  5
7AD
330
6C
100
AcDbEntity
  8
4
100
AcDbLine
 10
2158.722899053028
 20
-3228.430470576394
 30
0.0
 11
2144.972899053042
 21
-3228.430470576394
 31
0.0
  0
ARC
  5
7AE
330
6C
100
AcDbEntity
  8
4
100
AcDbCircle
 10
2128.299491853875
 20
-3140.930470576408
 30
0.0
 40
2.5
100
AcDbArc
 50
1.782542080377738
 51
90.0
1001
GENIUS_GENODEF_13
1002
{
1000
HIER
1070
     0
1002
}
1002
{
1000
MANEDIT
1070
     0
1002
}
1002
{
1000
NOSEL
1070
     0
1002
}
1002
{
1000
BEHIND
1070
     0
1002
}
1002
{
1000
REACTOR
1002
}
1001
GENIUS_GENOBJ-N-FIL_13
1002
{
1000
OWNER
1000
GEN
1002
}
  0
LINE
  5
7AF
330
6C
100
AcDbEntity
  8
4
100
AcDbLine
 10
2131.81456365982
 20
-3173.508236100897
 30
0.0
 11
2130.798282065793
 21
-3140.852705051919
 31
0.0
  0
ARC
  5
7B0
330
6C
100
AcDbEntity
  8
4
100
AcDbCircle
 10
2160.646306252209
 20
-3140.930470576416
 30
0.0
 40
2.5
100
AcDbArc
 50
90.0
 51
178.2174579196222
1001
GENIUS_GENODEF_13
1002
{
1000
HIER
1070
     0
1002
}
1002
{
1000
MANEDIT
1070
     0
1002
}
1002
{
1000
NOSEL
1070
     0
1002
}
1002
{
1000
BEHIND
1070
     0
1002
}
1002
{
1000
REACTOR
1002
}
1001
GENIUS_GENOBJ-N-FIL_13
1002
{
1000
OWNER
1000
GEN
1002
}
  0
LINE
  5
7B1
330
6C
100
AcDbEntity
  8
4
100
AcDbLine
 10
2157.131234446264
 20
-3173.508236100897
 30
0.0
 11
2158.147516040292
 21
-3140.852705051919
 31
0.0
  0
LINE
  5
7B2
330
6C
100
AcDbEntity
  8
4
100
AcDbLine
 10
2069.972899053042
 20
-3190.930470576394
 30
0.0
 11
2068.039824559339
 21
-3150.335906208711
 31
0.0
  0
LINE
  5
7B3
330
6C
100
AcDbEntity
  8
4
100
AcDbLine
 10
2069.972899053042
 20
-3190.930470576394
 30
0.0
 11
2069.972899053042
 21
-3290.930470576394
 31
0.0
1001
GENIUS_GENODEF_13
1002
{
1000
HIER
1070
     0
1002
}
1002
{
1000
MANEDIT
1070
     0
1002
}
1002
{
1000
NOSEL
1070
     0
1002
}
1002
{
1000
BEHIND
1070
     0
1002
}
1002
{
1000
REACTOR
1002
}
1001
GENIUS_GENOBJ-N-CEN_13
1002
{
1000
OWNER
1000
GEN
1002
}
  0
ARC
  5
7B4
330
6C
100
AcDbEntity
  8
4
100
AcDbCircle
 10
2055.553972837792
 20
-3150.930470576394
 30
0.0
 40
12.5
100
AcDbArc
 50
2.726310993727803
 51
90.0
1001
GENIUS_GENODEF_13
1002
{
1000
HIER
1070
     0
1002
}
1002
{
1000
MANEDIT
1070
     0
1002
}
1002
{
1000
NOSEL
1070
     0
1002
}
1002
{
1000
BEHIND
1070
     0
1002
}
1002
{
1000
REACTOR
1002
}
1001
GENIUS_GENOBJ-N-FIL_13
1002
{
1000
OWNER
1000
GEN
1002
}
  0
LINE
  5
7B5
330
6C
100
AcDbEntity
  8
4
100
AcDbLine
 10
2154.972899053028
 20
-3190.930470576394
 30
0.0
 11
2069.972899053042
 21
-3190.930470576394
 31
0.0
  0
LINE
  5
7B6
330
6C
100
AcDbEntity
  8
4
100
AcDbLine
 10
2158.722899053028
 20
-3290.930470576394
 30
0.0
 11
2069.972899053042
 21
-3290.930470576394
 31
0.0
  0
ARC
  5
7B7
330
6C
100
AcDbEntity
  8
4
100
AcDbCircle
 10
2201.972899053042
 20
-3130.930470576394
 30
0.0
 40
7.5
100
AcDbArc
 50
270.0
 51
0.0
1001
GENIUS_GENODEF_13
1002
{
1000
HIER
1070
     0
1002
}
1002
{
1000
MANEDIT
1070
     0
1002
}
1002
{
1000
NOSEL
1070
     0
1002
}
1002
{
1000
BEHIND
1070
     0
1002
}
1002
{
1000
REACTOR
1002
}
1001
GENIUS_GENOBJ-N-FIL_13
1002
{
1000
OWNER
1000
GEN
1002
}
  0
ARC
  5
7B8
330
6C
100
AcDbEntity
  8
4
100
AcDbCircle
 10
2181.972899053028
 20
-2745.647176530234
 30
0.0
 40
10.0
100
AcDbArc
 50
0.0
 51
90.0
1001
GENIUS_GENODEF_13
1002
{
1000
HIER
1070
     0
1002
}
1002
{
1000
MANEDIT
1070
     0
1002
}
1002
{
1000
NOSEL
1070
     0
1002
}
1002
{
1000
BEHIND
1070
     0
1002
}
1002
{
1000
REACTOR
1002
}
1001
GENIUS_GENOBJ-N-FIL_13
1002
{
1000
OWNER
1000
GEN
1002
}
  0
LINE
  5
7B9
330
6C
100
AcDbEntity
  8
4
100
AcDbLine
 10
2009.472899053042
 20
-3032.430470576408
 30
0.0
 11
2209.472899053042
 21
-3032.430470576408
 31
0.0
  0
LINE
  5
7BA
330
6C
100
AcDbEntity
  8
4
100
AcDbLine
 10
2009.472899053042
 20
-3030.930470576393
 30
0.0
 11
2209.472899053042
 21
-3030.930470576393
 31
0.0
  0
LINE
  5
7BB
330
6C
100
AcDbEntity
  8
4
100
AcDbLine
 10
2021.972899053027
 20
-2967.319791582413
 30
0.0
 11
2196.972899053042
 21
-2967.319791582413
 31
0.0
  0
LINE
  5
7BC
330
6C
100
AcDbEntity
  8
4
100
AcDbLine
 10
2196.972899053042
 20
-2973.46343191457
 30
0.0
 11
2021.972899053042
 21
-2973.46343191457
 31
0.0
  0
LINE
  5
7BD
330
6C
100
AcDbEntity
  8
4
100
AcDbLine
 10
2191.912005502687
 20
-2959.537847161664
 30
0.0
 11
2026.972899053042
 21
-2959.537847161664
 31
0.0
  0
SPLINE
  5
7BE
330
6C
100
AcDbEntity
  8
4
100
AcDbSpline
210
0.0
220
0.0
230
1.0
 70
  1064
 71
     3
 72
    12
 73
     8
 74
     6
 42
0.0000000001
 43
0.0000000001
 44
0.0000000001
 40
0.0
 40
0.0
 40
0.0
 40
0.0
 40
23.98518724541597
 40
48.21222531335239
 40
74.4147863577889
 40
92.48889073135512
 40
99.15807596644572
 40
99.15807596644572
 40
99.15807596644572
 40
99.15807596644572
 10
2116.201070102965
 20
-2907.310529137641
 30
0.0
 10
2124.175794254551
 20
-2908.277383727023
 30
0.0
 10
2140.205654420915
 20
-2910.220842030332
 30
0.0
 10
2163.172126198321
 20
-2920.435786316684
 30
0.0
 10
2181.820585802313
 20
-2933.821655228933
 30
0.0
 10
2191.520870190145
 20
-2949.004867246048
 30
0.0
 10
2191.876928766292
 20
-2957.301589290097
 30
0.0
 10
2191.972899053042
 20
-2959.537847161664
 30
0.0
 11
2116.201070102965
 21
-2907.310529137641
 31
0.0
 11
2139.840563522084
 21
-2911.368060170804
 31
0.0
 11
2162.138739843751
 21
-2920.841217314708
 31
0.0
 11
2182.764594066175
 21
-2937.001302180906
 31
0.0
 11
2191.368589545702
 21
-2952.896097262783
 31
0.0
 11
2191.972899053042
 21
-2959.537847161664
 31
0.0
  0
LINE
  5
7BF
330
6C
100
AcDbEntity
  8
4
100
AcDbLine
 10
2111.472899053042
 20
-2735.576257551133
 30
0.0
 11
2111.472899053042
 21
-2508.611619941716
 31
0.0
  0
LINE
  5
7C0
330
6C
100
AcDbEntity
  8
4
100
AcDbLine
 10
2107.472899053028
 20
-2735.576257551133
 30
0.0
 11
2107.472899053028
 21
-2508.611619941716
 31
0.0
  0
LINE
  5
7C1
330
6C
100
AcDbEntity
  8
1
100
AcDbLine
 10
2108.222899053042
 20
-2862.513264046604
 30
0.0
 11
2046.972899053042
 21
-2862.513264046604
 31
0.0
  0
LINE
  5
7C2
330
6C
100
AcDbEntity
  8
1
100
AcDbLine
 10
2108.222899053042
 20
-2843.763264046604
 30
0.0
 11
2046.972899053042
 21
-2843.763264046604
 31
0.0
  0
LINE
  5
7C3
330
6C
100
AcDbEntity
  8
1
100
AcDbLine
 10
2108.222899053042
 20
-2806.263264046604
 30
0.0
 11
2046.972899053042
 21
-2806.263264046604
 31
0.0
  0
LINE
  5
7C4
330
6C
100
AcDbEntity
  8
1
100
AcDbLine
 10
2108.222899053042
 20
-2825.013264046603
 30
0.0
 11
2046.972899053042
 21
-2825.013264046603
 31
0.0
  0
LINE
  5
7C5
330
6C
100
AcDbEntity
  8
1
100
AcDbLine
 10
2108.222899053042
 20
-2881.263264046604
 30
0.0
 11
2046.972899053042
 21
-2881.263264046604
 31
0.0
  0
LINE
  5
7C6
330
6C
100
AcDbEntity
  8
1
100
AcDbLine
 10
2108.222899053042
 20
-2787.513264046604
 30
0.0
 11
2046.972899053042
 21
-2787.513264046604
 31
0.0
  0
LINE
  5
7C7
330
6C
100
AcDbEntity
  8
1
100
AcDbLine
 10
2108.222899053042
 20
-2768.763264046604
 30
0.0
 11
2046.972899053042
 21
-2768.763264046604
 31
0.0
  0
LINE
  5
7C8
330
6C
100
AcDbEntity
  8
4
100
AcDbLine
 10
2181.972899053028
 20
-2735.647176530234
 30
0.0
 11
2036.972899053042
 21
-2735.647176530227
 31
0.0
  0
SPLINE
  5
7C9
330
6C
100
AcDbEntity
  8
4
100
AcDbSpline
210
0.0
220
0.0
230
1.0
 70
  1064
 71
     3
 72
    12
 73
     8
 74
     6
 42
0.0000000001
 43
0.0000000001
 44
0.0000000001
 40
0.0
 40
0.0
 40
0.0
 40
0.0
 40
23.98518724541597
 40
48.21222531335239
 40
74.4147863577889
 40
92.48889073134819
 40
99.15807596644013
 40
99.15807596644013
 40
99.15807596644013
 40
99.15807596644013
 10
2102.744728003119
 20
-2907.310529137641
 30
0.0
 10
2094.770003851534
 20
-2908.277383727023
 30
0.0
 10
2078.740143685169
 20
-2910.220842030332
 30
0.0
 10
2055.773671907767
 20
-2920.435786316684
 30
0.0
 10
2037.12521230376
 20
-2933.821655228928
 30
0.0
 10
2027.424927915966
 20
-2949.004867246051
 30
0.0
 10
2027.068869339797
 20
-2957.301589290097
 30
0.0
 10
2026.972899053042
 20
-2959.537847161664
 30
0.0
 11
2102.744728003119
 21
-2907.310529137641
 31
0.0
 11
2079.105234584
 21
-2911.368060170804
 31
0.0
 11
2056.807058262333
 21
-2920.841217314708
 31
0.0
 11
2036.181204039909
 21
-2937.001302180906
 31
0.0
 11
2027.577208560397
 21
-2952.896097262783
 31
0.0
 11
2026.972899053042
 21
-2959.537847161664
 31
0.0
  0
LINE
  5
7CA
330
6C
100
AcDbEntity
  8
4
100
AcDbLine
 10
2009.472899053042
 20
-2910.930470576394
 30
0.0
 11
2009.472899053042
 21
-3030.930470576393
 31
0.0
1001
GENIUS_GENODEF_13
1002
{
1000
HIER
1070
     0
1002
}
1002
{
1000
MANEDIT
1070
     0
1002
}
1002
{
1000
NOSEL
1070
     0
1002
}
1002
{
1000
BEHIND
1070
     0
1002
}
1002
{
1000
REACTOR
1002
}
1001
GENIUS_GENOBJ-N-CEN_13
1002
{
1000
OWNER
1000
GEN
1002
}
  0
LINE
  5
7CB
330
6C
100
AcDbEntity
  8
4
100
AcDbLine
 10
2010.972899053042
 20
-3030.930470576393
 30
0.0
 11
2010.972899053042
 21
-3032.430470576408
 31
0.0
1001
GENIUS_GENODEF_13
1002
{
1000
HIER
1070
     0
1002
}
1002
{
1000
MANEDIT
1070
     0
1002
}
1002
{
1000
NOSEL
1070
     0
1002
}
1002
{
1000
BEHIND
1070
     0
1002
}
1002
{
1000
REACTOR
1002
}
1001
GENIUS_GENOBJ-N-CEN_13
1002
{
1000
OWNER
1000
GEN
1002
}
  0
ARC
  5
7CC
330
6C
100
AcDbEntity
  8
4
100
AcDbCircle
 10
2029.472899053042
 20
-3061.180470576379
 30
0.0
 40
2.5
100
AcDbArc
 50
0.0
 51
90.0
1001
GENIUS_GENODEF_13
1002
{
1000
HIER
1070
     0
1002
}
1002
{
1000
MANEDIT
1070
     0
1002
}
1002
{
1000
NOSEL
1070
     0
1002
}
1002
{
1000
BEHIND
1070
     0
1002
}
1002
{
1000
REACTOR
1002
}
1001
GENIUS_GENOBJ-N-FIL_13
1002
{
1000
OWNER
1000
GEN
1002
}
  0
LINE
  5
7CD
330
6C
100
AcDbEntity
  8
4
100
AcDbLine
 10
2011.972899053028
 20
-3058.680470576379
 30
0.0
 11
2029.472899053042
 21
-3058.680470576379
 31
0.0
  0
ARC
  5
7CE
330
6C
100
AcDbEntity
  8
4
100
AcDbCircle
 10
2011.972899053028
 20
-3056.180470576379
 30
0.0
 40
2.5
100
AcDbArc
 50
180.0
 51
270.0
1001
GENIUS_GENODEF_13
1002
{
1000
HIER
1070
     0
1002
}
1002
{
1000
MANEDIT
1070
     0
1002
}
1002
{
1000
NOSEL
1070
     0
1002
}
1002
{
1000
BEHIND
1070
     0
1002
}
1002
{
1000
REACTOR
1002
}
1001
GENIUS_GENOBJ-N-FIL_13
1002
{
1000
OWNER
1000
GEN
1002
}
  0
LINE
  5
7CF
330
6C
100
AcDbEntity
  8
4
100
AcDbLine
 10
2026.972899053042
 20
-2745.647176530213
 30
0.0
 11
2026.972899053042
 21
-2962.319791582413
 31
0.0
  0
LINE
  5
7D0
330
6C
100
AcDbEntity
  8
4
100
AcDbLine
 10
2021.972899053042
 20
-2748.870501826918
 30
0.0
 11
2021.972899053042
 21
-2973.46343191457
 31
0.0
1001
GENIUS_GENODEF_13
1002
{
1000
HIER
1070
     0
1002
}
1002
{
1000
MANEDIT
1070
     0
1002
}
1002
{
1000
NOSEL
1070
     0
1002
}
1002
{
1000
BEHIND
1070
     0
1002
}
1002
{
1000
REACTOR
1002
}
1001
GENIUS_GENOBJ-N-CEN_13
1002
{
1000
OWNER
1000
GEN
1002
}
  0
LINE
  5
7D1
330
6C
100
AcDbEntity
  8
1
100
AcDbLine
 10
2046.972899053042
 20
-2768.763264046604
 30
0.0
 11
2046.972899053042
 21
-2881.263264046604
 31
0.0
  0
LINE
  5
7D2
330
6C
100
AcDbEntity
  8
4
100
AcDbLine
 10
2020.722899053042
 20
-2900.930470576394
 30
0.0
 11
2020.722899053042
 21
-2903.430470576394
 31
0.0
1001
GENIUS_GENODEF_13
1002
{
1000
HIER
1070
     0
1002
}
1002
{
1000
MANEDIT
1070
     0
1002
}
1002
{
1000
NOSEL
1070
     0
1002
}
1002
{
1000
BEHIND
1070
     0
1002
}
1002
{
1000
REACTOR
1002
}
1001
GENIUS_GENOBJ-N-CEN_13
1002
{
1000
OWNER
1000
GEN
1002
}
  0
LINE
  5
7D3
330
6C
100
AcDbEntity
  8
4
100
AcDbLine
 10
2021.972899053027
 20
-2900.930470576394
 30
0.0
 11
2020.722899053042
 21
-2900.930470576394
 31
0.0
  0
LINE
  5
7D4
330
6C
100
AcDbEntity
  8
4
100
AcDbLine
 10
2021.972899053042
 20
-2903.430470576394
 30
0.0
 11
2016.972899053042
 21
-2903.430470576394
 31
0.0
  0
ARC
  5
7D5
330
6C
100
AcDbEntity
  8
4
100
AcDbCircle
 10
2019.472899053027
 20
-2925.930470576393
 30
0.0
 40
12.5
100
AcDbArc
 50
78.46304096735562
 51
90.0
1001
GENIUS_GENODEF_13
1002
{
1000
HIER
1070
     0
1002
}
1002
{
1000
MANEDIT
1070
     0
1002
}
1002
{
1000
NOSEL
1070
     0
1002
}
1002
{
1000
BEHIND
1070
     0
1002
}
1002
{
1000
REACTOR
1002
}
1001
GENIUS_GENOBJ-N-FIL_13
1002
{
1000
OWNER
1000
GEN
1002
}
  0
LINE
  5
7D6
330
6C
100
AcDbEntity
  8
4
100
AcDbLine
 10
2031.972899053042
 20
-2983.430470576364
 30
0.0
 11
2031.972899053042
 21
-2973.46343191457
 31
0.0
  0
ARC
  5
7D7
330
6C
100
AcDbEntity
  8
4
100
AcDbCircle
 10
2031.972899053042
 20
-2962.319791582413
 30
0.0
 40
5.0
100
AcDbArc
 50
180.0
 51
270.0
1001
GENIUS_GENODEF_13
1002
{
1000
HIER
1070
     0
1002
}
1002
{
1000
MANEDIT
1070
     0
1002
}
1002
{
1000
NOSEL
1070
     0
1002
}
1002
{
1000
BEHIND
1070
     0
1002
}
1002
{
1000
REACTOR
1002
}
1001
GENIUS_GENOBJ-N-FIL_13
1002
{
1000
OWNER
1000
GEN
1002
}
  0
LINE
  5
7D8
330
6C
100
AcDbEntity
  8
4
100
AcDbLine
 10
2019.472899053027
 20
-2913.430470576394
 30
0.0
 11
2009.472899053042
 21
-2913.430470576394
 31
0.0
  0
ARC
  5
7D9
330
6C
100
AcDbEntity
  8
4
100
AcDbCircle
 10
2029.472899053027
 20
-2983.430470576364
 30
0.0
 40
2.5
100
AcDbArc
 50
270.0
 51
0.0
1001
GENIUS_GENODEF_13
1002
{
1000
HIER
1070
     0
1002
}
1002
{
1000
MANEDIT
1070
     0
1002
}
1002
{
1000
NOSEL
1070
     0
1002
}
1002
{
1000
BEHIND
1070
     0
1002
}
1002
{
1000
REACTOR
1002
}
1001
GENIUS_GENOBJ-N-FIL_13
1002
{
1000
OWNER
1000
GEN
1002
}
  0
LINE
  5
7DA
330
6C
100
AcDbEntity
  8
4
100
AcDbLine
 10
2011.972899053028
 20
-2985.930470576379
 30
0.0
 11
2029.472899053027
 21
-2985.930470576379
 31
0.0
  0
ARC
  5
7DB
330
6C
100
AcDbEntity
  8
4
100
AcDbCircle
 10
2011.972899053028
 20
-2988.430470576386
 30
0.0
 40
2.5
100
AcDbArc
 50
90.0
 51
180.0
1001
GENIUS_GENODEF_13
1002
{
1000
HIER
1070
     0
1002
}
1002
{
1000
MANEDIT
1070
     0
1002
}
1002
{
1000
NOSEL
1070
     0
1002
}
1002
{
1000
BEHIND
1070
     0
1002
}
1002
{
1000
REACTOR
1002
}
1001
GENIUS_GENOBJ-N-FIL_13
1002
{
1000
OWNER
1000
GEN
1002
}
  0
ARC
  5
7DC
330
6C
100
AcDbEntity
  8
4
100
AcDbCircle
 10
2016.972899053042
 20
-2910.930470576394
 30
0.0
 40
7.5
100
AcDbArc
 50
90.0
 51
180.0
1001
GENIUS_GENODEF_13
1002
{
1000
HIER
1070
     0
1002
}
1002
{
1000
MANEDIT
1070
     0
1002
}
1002
{
1000
NOSEL
1070
     0
1002
}
1002
{
1000
BEHIND
1070
     0
1002
}
1002
{
1000
REACTOR
1002
}
1001
GENIUS_GENOBJ-N-FIL_13
1002
{
1000
OWNER
1000
GEN
1002
}
  0
LINE
  5
7DD
330
6C
100
AcDbEntity
  8
4
100
AcDbLine
 10
2026.972899053042
 20
-2748.870501826918
 30
0.0
 11
2021.972899053042
 21
-2748.870501826918
 31
0.0
  0
ARC
  5
7DE
330
6C
100
AcDbEntity
  8
4
100
AcDbCircle
 10
2036.972899053042
 20
-2745.647176530213
 30
0.0
 40
10.0
100
AcDbArc
 50
90.0
 51
180.0
1001
GENIUS_GENODEF_13
1002
{
1000
HIER
1070
     0
1002
}
1002
{
1000
MANEDIT
1070
     0
1002
}
1002
{
1000
NOSEL
1070
     0
1002
}
1002
{
1000
BEHIND
1070
     0
1002
}
1002
{
1000
REACTOR
1002
}
1001
GENIUS_GENOBJ-N-FIL_13
1002
{
1000
OWNER
1000
GEN
1002
}
  0
LINE
  5
7DF
330
6C
100
AcDbEntity
  8
1
100
AcDbLine
 10
2171.972899053042
 20
-2768.763264046604
 30
0.0
 11
2171.972899053042
 21
-2881.263264046604
 31
0.0
  0
LINE
  5
7E0
330
6C
100
AcDbEntity
  8
1
100
AcDbLine
 10
2108.222899053042
 20
-2881.263264046604
 30
0.0
 11
2108.222899053042
 21
-2768.763264046604
 31
0.0
  0
LINE
  5
7E1
330
6C
100
AcDbEntity
  8
1
100
AcDbLine
 10
2110.722899053042
 20
-2881.263264046604
 30
0.0
 11
2110.722899053042
 21
-2768.763264046604
 31
0.0
  0
LINE
  5
7E2
330
6C
100
AcDbEntity
  8
4
100
AcDbLine
 10
2116.20107010298
 20
-2907.310529137641
 30
0.0
 11
2102.744728003119
 21
-2907.310529137641
 31
0.0
  0
LINE
  5
7E3
330
6C
100
AcDbEntity
  8
1
100
AcDbLine
 10
2171.972899053042
 20
-2862.513264046604
 30
0.0
 11
2110.722899053042
 21
-2862.513264046604
 31
0.0
  0
LINE
  5
7E4
330
6C
100
AcDbEntity
  8
1
100
AcDbLine
 10
2171.972899053042
 20
-2843.763264046604
 30
0.0
 11
2110.722899053042
 21
-2843.763264046604
 31
0.0
  0
LINE
  5
7E5
330
6C
100
AcDbEntity
  8
1
100
AcDbLine
 10
2171.972899053042
 20
-2806.263264046604
 30
0.0
 11
2110.722899053042
 21
-2806.263264046604
 31
0.0
  0
LINE
  5
7E6
330
6C
100
AcDbEntity
  8
1
100
AcDbLine
 10
2171.972899053042
 20
-2825.013264046603
 30
0.0
 11
2110.722899053042
 21
-2825.013264046603
 31
0.0
  0
LINE
  5
7E7
330
6C
100
AcDbEntity
  8
1
100
AcDbLine
 10
2171.972899053042
 20
-2881.263264046604
 30
0.0
 11
2110.722899053042
 21
-2881.263264046604
 31
0.0
  0
LINE
  5
7E8
330
6C
100
AcDbEntity
  8
1
100
AcDbLine
 10
2171.972899053042
 20
-2787.513264046604
 30
0.0
 11
2110.722899053042
 21
-2787.513264046604
 31
0.0
  0
LINE
  5
7E9
330
6C
100
AcDbEntity
  8
1
100
AcDbLine
 10
2171.972899053042
 20
-2768.763264046604
 30
0.0
 11
2110.722899053042
 21
-2768.763264046604
 31
0.0
  0
LINE
  5
7EA
330
6C
100
AcDbEntity
  8
4
100
AcDbLine
 10
2111.472899053042
 20
-2508.430470576394
 30
0.0
 11
2107.472899053028
 21
-2508.430470576394
 31
0.0
  0
LINE
  5
7EB
330
6C
100
AcDbEntity
  8
4
100
AcDbLine
 10
2209.472899053042
 20
-2910.930470576394
 30
0.0
 11
2209.472899053042
 21
-3030.930470576393
 31
0.0
1001
GENIUS_GENODEF_13
1002
{
1000
HIER
1070
     0
1002
}
1002
{
1000
MANEDIT
1070
     0
1002
}
1002
{
1000
NOSEL
1070
     0
1002
}
1002
{
1000
BEHIND
1070
     0
1002
}
1002
{
1000
REACTOR
1002
}
1001
GENIUS_GENOBJ-N-CEN_13
1002
{
1000
OWNER
1000
GEN
1002
}
  0
LINE
  5
7EC
330
6C
100
AcDbEntity
  8
4
100
AcDbLine
 10
2207.972899053042
 20
-3030.930470576393
 30
0.0
 11
2207.972899053042
 21
-3032.430470576408
 31
0.0
1001
GENIUS_GENODEF_13
1002
{
1000
HIER
1070
     0
1002
}
1002
{
1000
MANEDIT
1070
     0
1002
}
1002
{
1000
NOSEL
1070
     0
1002
}
1002
{
1000
BEHIND
1070
     0
1002
}
1002
{
1000
REACTOR
1002
}
1001
GENIUS_GENOBJ-N-CEN_13
1002
{
1000
OWNER
1000
GEN
1002
}
  0
ARC
  5
7ED
330
6C
100
AcDbEntity
  8
4
100
AcDbCircle
 10
2206.972899053042
 20
-3056.180470576379
 30
0.0
 40
2.5
100
AcDbArc
 50
270.0
 51
0.0
1001
GENIUS_GENODEF_13
1002
{
1000
HIER
1070
     0
1002
}
1002
{
1000
MANEDIT
1070
     0
1002
}
1002
{
1000
NOSEL
1070
     0
1002
}
1002
{
1000
BEHIND
1070
     0
1002
}
1002
{
1000
REACTOR
1002
}
1001
GENIUS_GENOBJ-N-FIL_13
1002
{
1000
OWNER
1000
GEN
1002
}
  0
ARC
  5
7EE
330
6C
100
AcDbEntity
  8
4
100
AcDbCircle
 10
2206.972899053042
 20
-2988.430470576386
 30
0.0
 40
2.5
100
AcDbArc
 50
0.0
 51
90.0
1001
GENIUS_GENODEF_13
1002
{
1000
HIER
1070
     0
1002
}
1002
{
1000
MANEDIT
1070
     0
1002
}
1002
{
1000
NOSEL
1070
     0
1002
}
1002
{
1000
BEHIND
1070
     0
1002
}
1002
{
1000
REACTOR
1002
}
1001
GENIUS_GENOBJ-N-FIL_13
1002
{
1000
OWNER
1000
GEN
1002
}
  0
ARC
  5
7EF
330
6C
100
AcDbEntity
  8
4
100
AcDbCircle
 10
2189.472899053042
 20
-3061.180470576379
 30
0.0
 40
2.5
100
AcDbArc
 50
90.0
 51
180.0
1001
GENIUS_GENODEF_13
1002
{
1000
HIER
1070
     0
1002
}
1002
{
1000
MANEDIT
1070
     0
1002
}
1002
{
1000
NOSEL
1070
     0
1002
}
1002
{
1000
BEHIND
1070
     0
1002
}
1002
{
1000
REACTOR
1002
}
1001
GENIUS_GENOBJ-N-FIL_13
1002
{
1000
OWNER
1000
GEN
1002
}
  0
LINE
  5
7F0
330
6C
100
AcDbEntity
  8
4
100
AcDbLine
 10
2196.972899053042
 20
-2903.430470576394
 30
0.0
 11
2201.972899053042
 21
-2903.430470576394
 31
0.0
  0
LINE
  5
7F1
330
6C
100
AcDbEntity
  8
4
100
AcDbLine
 10
2191.972899053042
 20
-2745.647176530234
 30
0.0
 11
2191.972899053042
 21
-2962.319791582413
 31
0.0
  0
LINE
  5
7F2
330
6C
100
AcDbEntity
  8
4
100
AcDbLine
 10
2196.972899053042
 20
-2748.870501826918
 30
0.0
 11
2196.972899053042
 21
-2973.46343191457
 31
0.0
1001
GENIUS_GENODEF_13
1002
{
1000
HIER
1070
     0
1002
}
1002
{
1000
MANEDIT
1070
     0
1002
}
1002
{
1000
NOSEL
1070
     0
1002
}
1002
{
1000
BEHIND
1070
     0
1002
}
1002
{
1000
REACTOR
1002
}
1001
GENIUS_GENOBJ-N-CEN_13
1002
{
1000
OWNER
1000
GEN
1002
}
  0
LINE
  5
7F3
330
6C
100
AcDbEntity
  8
4
100
AcDbLine
 10
2196.972899053042
 20
-2900.930470576394
 30
0.0
 11
2198.222899053042
 21
-2900.930470576394
 31
0.0
  0
LINE
  5
7F4
330
6C
100
AcDbEntity
  8
4
100
AcDbLine
 10
2198.222899053042
 20
-2900.930470576394
 30
0.0
 11
2198.222899053042
 21
-2903.430470576394
 31
0.0
1001
GENIUS_GENODEF_13
1002
{
1000
HIER
1070
     0
1002
}
1002
{
1000
MANEDIT
1070
     0
1002
}
1002
{
1000
NOSEL
1070
     0
1002
}
1002
{
1000
BEHIND
1070
     0
1002
}
1002
{
1000
REACTOR
1002
}
1001
GENIUS_GENOBJ-N-CEN_13
1002
{
1000
OWNER
1000
GEN
1002
}
  0
ARC
  5
7F5
330
6C
100
AcDbEntity
  8
4
100
AcDbCircle
 10
2199.472899053042
 20
-2925.930470576393
 30
0.0
 40
12.5
100
AcDbArc
 50
90.0
 51
101.5369590326443
1001
GENIUS_GENODEF_13
1002
{
1000
HIER
1070
     0
1002
}
1002
{
1000
MANEDIT
1070
     0
1002
}
1002
{
1000
NOSEL
1070
     0
1002
}
1002
{
1000
BEHIND
1070
     0
1002
}
1002
{
1000
REACTOR
1002
}
1001
GENIUS_GENOBJ-N-FIL_13
1002
{
1000
OWNER
1000
GEN
1002
}
  0
LINE
  5
7F6
330
6C
100
AcDbEntity
  8
4
100
AcDbLine
 10
2186.972899053042
 20
-2983.430470576364
 30
0.0
 11
2186.972899053042
 21
-2973.46343191457
 31
0.0
  0
ARC
  5
7F7
330
6C
100
AcDbEntity
  8
4
100
AcDbCircle
 10
2186.972899053042
 20
-2962.319791582413
 30
0.0
 40
5.0
100
AcDbArc
 50
270.0
 51
0.0
1001
GENIUS_GENODEF_13
1002
{
1000
HIER
1070
     0
1002
}
1002
{
1000
MANEDIT
1070
     0
1002
}
1002
{
1000
NOSEL
1070
     0
1002
}
1002
{
1000
BEHIND
1070
     0
1002
}
1002
{
1000
REACTOR
1002
}
1001
GENIUS_GENOBJ-N-FIL_13
1002
{
1000
OWNER
1000
GEN
1002
}
  0
ARC
  5
7F8
330
6C
100
AcDbEntity
  8
4
100
AcDbCircle
 10
2189.472899053042
 20
-2983.430470576364
 30
0.0
 40
2.5
100
AcDbArc
 50
180.0
 51
270.0
1001
GENIUS_GENODEF_13
1002
{
1000
HIER
1070
     0
1002
}
1002
{
1000
MANEDIT
1070
     0
1002
}
1002
{
1000
NOSEL
1070
     0
1002
}
1002
{
1000
BEHIND
1070
     0
1002
}
1002
{
1000
REACTOR
1002
}
1001
GENIUS_GENOBJ-N-FIL_13
1002
{
1000
OWNER
1000
GEN
1002
}
  0
LINE
  5
7F9
330
6C
100
AcDbEntity
  8
4
100
AcDbLine
 10
2191.972899053042
 20
-2748.870501826918
 30
0.0
 11
2196.972899053042
 21
-2748.870501826918
 31
0.0
  0
LINE
  5
7FA
330
6C
100
AcDbEntity
  8
4
100
AcDbLine
 10
2206.972899053042
 20
-3058.680470576379
 30
0.0
 11
2189.472899053042
 21
-3058.680470576379
 31
0.0
  0
LINE
  5
7FB
330
6C
100
AcDbEntity
  8
4
100
AcDbLine
 10
2199.472899053042
 20
-2913.430470576394
 30
0.0
 11
2209.472899053042
 21
-2913.430470576394
 31
0.0
  0
LINE
  5
7FC
330
6C
100
AcDbEntity
  8
4
100
AcDbLine
 10
2206.972899053042
 20
-2985.930470576379
 30
0.0
 11
2189.472899053042
 21
-2985.930470576379
 31
0.0
  0
ARC
  5
7FD
330
6C
100
AcDbEntity
  8
4
100
AcDbCircle
 10
2201.972899053042
 20
-2910.930470576394
 30
0.0
 40
7.5
100
AcDbArc
 50
0.0
 51
90.0
1001
GENIUS_GENODEF_13
1002
{
1000
HIER
1070
     0
1002
}
1002
{
1000
MANEDIT
1070
     0
1002
}
1002
{
1000
NOSEL
1070
     0
1002
}
1002
{
1000
BEHIND
1070
     0
1002
}
1002
{
1000
REACTOR
1002
}
1001
GENIUS_GENOBJ-N-FIL_13
1002
{
1000
OWNER
1000
GEN
1002
}
  0
LINE
  5
7FE
330
6C
100
AcDbEntity
  8
4
100
AcDbLine
 10
2141.222899053042
 20
-3453.430470576364
 30
0.0
 11
2141.222899053042
 21
-3290.746647046989
 31
0.0
  0
LINE
  5
7FF
330
6C
100
AcDbEntity
  8
4
100
AcDbLine
 10
2077.722899053042
 20
-3453.430470576364
 30
0.0
 11
2077.722899053042
 21
-3290.746647046989
 31
0.0
  0
TEXT
  5
800
330
6C
100
AcDbEntity
  8
MOJI
  6
Continuous
 62
     4
100
AcDbText
 10
12000.22857542953
 20
-17030.00003801604
 30
0.0
 40
300.0
  1
制御部（ポールに内装）
100
AcDbText
  0
TEXT
  5
801
330
6C
100
AcDbEntity
  8
MOJI
  6
Continuous
 62
     4
100
AcDbText
 10
12000.22857542953
 20
-17030.00003801604
 30
0.0
 40
300.0
  1
制御部（ポールに内装）
100
AcDbText
  0
TEXT
  5
802
330
6C
100
AcDbEntity
  8
MOJI
  6
Continuous
 62
     4
100
AcDbText
 10
12000.2285754295
 20
-17630.00003801604
 30
0.0
 40
300.0
  1
水晶発振周波数
100
AcDbText
  0
TEXT
  5
803
330
6C
100
AcDbEntity
  8
MOJI
  6
Continuous
 62
     4
100
AcDbText
 10
12000.2285754295
 20
-19430.00003801604
 30
0.0
 40
300.0
  1
出力信号
100
AcDbText
  0
TEXT
  5
804
330
6C
100
AcDbEntity
  8
MOJI
  6
Continuous
 62
     4
100
AcDbText
 10
12000.2285754295
 20
-18830.00003801604
 30
0.0
 40
300.0
  1
使用温度範囲
100
AcDbText
  0
TEXT
  5
805
330
6C
100
AcDbEntity
  8
MOJI
  6
Continuous
 62
     4
100
AcDbText
 10
12000.2285754295
 20
-18230.00003801604
 30
0.0
 40
300.0
  1
精度
100
AcDbText
  0
LINE
  5
806
330
6C
100
AcDbEntity
  8
SEN
  6
Continuous
 62
     2
100
AcDbLine
 10
15500.22857542947
 20
-21900.00000000002
 30
0.0
 11
15500.22857542947
 21
-23700.00000000002
 31
0.0
  0
TEXT
  5
807
330
6C
100
AcDbEntity
  8
MOJI
  6
Continuous
 62
     4
100
AcDbText
 10
16000.2285754295
 20
-18230.00003801604
 30
0.0
 40
300.0
  1
週差%%p1.2秒以内（電波修正により積算誤差0秒）
 41
0.9
100
AcDbText
  0
TEXT
  5
808
330
6C
100
AcDbEntity
  8
MOJI
  6
Continuous
 62
     4
100
AcDbText
 10
16000.2285754295
 20
-19430.00003801604
 30
0.0
 40
300.0
  1
DC3.6V 30秒有極信号
100
AcDbText
  0
TEXT
  5
809
330
6C
100
AcDbEntity
  8
MOJI
  6
Continuous
 62
     4
100
AcDbText
 10
16000.2285754295
 20
-17630.00003801604
 30
0.0
 40
300.0
  1
32.768kHz
100
AcDbText
  0
LINE
  5
80A
330
6C
100
AcDbEntity
  8
SEN
  6
Continuous
 62
     2
100
AcDbLine
 10
15500.22857542951
 20
-17100.00003801601
 30
0.0
 11
15500.2285754295
 21
-21300.00000000002
 31
0.0
  0
TEXT
  5
80B
330
6C
100
AcDbEntity
  8
MOJI
  6
Continuous
 62
     4
100
AcDbText
 10
16000.2285754295
 20
-18830.00003801604
 30
0.0
 40
300.0
  1
-20%%dC～+60%%dC
100
AcDbText
  0
TEXT
  5
80C
330
6C
100
AcDbEntity
  8
MOJI
  6
Continuous
 62
     4
100
AcDbText
 10
12000.2285754295
 20
-22429.99999999999
 30
0.0
 40
300.0
  1
動作補償日数
100
AcDbText
  0
TEXT
  5
80D
330
6C
100
AcDbEntity
  8
MOJI
  6
Continuous
 62
     4
100
AcDbText
 10
12000.2285754295
 20
-21829.99999999999
 30
0.0
 40
300.0
  1
動作補償（蓄電部　満充電時より）
100
AcDbText
  0
TEXT
  5
80E
330
6C
100
AcDbEntity
  8
MOJI
  6
Continuous
 62
     4
100
AcDbText
 10
16000.22857542951
 20
-22429.99999999999
 30
0.0
 40
300.0
  1
約30日（完全無日照時の場合）
100
AcDbText
  0
TEXT
  5
80F
330
6C
100
AcDbEntity
  8
MOJI
  6
Continuous
 62
     4
100
AcDbText
 10
12000.22857542953
 20
-20630.00003801606
 30
0.0
 40
300.0
  1
蓄電部
100
AcDbText
  0
TEXT
  5
810
330
6C
100
AcDbEntity
  8
MOJI
  6
Continuous
 62
     4
100
AcDbText
 10
16000.2285754295
 20
-20630.00003801606
 30
0.0
 40
300.0
  1
電気二重層コンデンサ　1300F\U+00D72
100
AcDbText
  0
TEXT
  5
811
330
6C
100
AcDbEntity
  8
MOJI
  6
Continuous
 62
     4
100
AcDbText
 10
12000.2285754295
 20
-20030.00000000015
 30
0.0
 40
300.0
  1
サマータイム
100
AcDbText
  0
TEXT
  5
812
330
6C
100
AcDbEntity
  8
MOJI
  6
Continuous
 62
     4
100
AcDbText
 10
16000.2285754295
 20
-20030.00000000015
 30
0.0
 40
300.0
  1
自動式
100
AcDbText
  0
TEXT
  5
813
330
6C
100
AcDbEntity
  8
MOJI
  6
Continuous
 62
     4
100
AcDbText
 10
12000.22857542948
 20
-15230.00003801602
 30
0.0
 40
300.0
  1
主柱
100
AcDbText
  0
TEXT
  5
814
330
6C
100
AcDbEntity
  8
MOJI
  6
Continuous
 62
     4
100
AcDbText
 10
12000.22857542948
 20
-14630.00003801602
 30
0.0
 40
300.0
  1
ポール部
100
AcDbText
  0
TEXT
  5
815
330
6C
100
AcDbEntity
  8
MOJI
  6
Continuous
 62
     4
100
AcDbText
 10
16000.22857542948
 20
-15230.00003801602
 30
0.0
 40
300.0
  1
%%C165.2 チョコレート色
100
AcDbText
  0
LINE
  5
816
330
6C
100
AcDbEntity
  8
SEN
  6
Continuous
 62
     2
100
AcDbLine
 10
15500.22857542948
 20
-14700.00003801602
 30
0.0
 11
15500.22857542947
 21
-16500.0
 31
0.0
  0
TEXT
  5
817
330
6C
100
AcDbEntity
  8
MOJI
  6
Continuous
 62
     4
100
AcDbText
 10
12000.22857542948
 20
-10430.00003801621
 30
0.0
 40
300.0
  1
太陽電池付長波アンテナ
100
AcDbText
  0
TEXT
  5
818
330
6C
100
AcDbEntity
  8
MOJI
  6
Continuous
 62
     4
100
AcDbText
 10
12000.22857542948
 20
-11630.00003801621
 30
0.0
 40
300.0
  1
太陽電池
100
AcDbText
  0
TEXT
  5
819
330
6C
100
AcDbEntity
  8
MOJI
  6
Continuous
 62
     4
100
AcDbText
 10
12000.22857542948
 20
-12230.00003801621
 30
0.0
 40
300.0
  1
アンテナ
100
AcDbText
  0
TEXT
  5
81A
330
6C
100
AcDbEntity
  8
MOJI
  6
Continuous
 62
     4
100
AcDbText
 10
12000.22857542948
 20
-11030.00003801621
 30
0.0
 40
300.0
  1
ケース
100
AcDbText
  0
TEXT
  5
81B
330
6C
100
AcDbEntity
  8
MOJI
  6
Continuous
 62
     4
100
AcDbText
 10
16000.22857542948
 20
-12830.00003801621
 30
0.0
 40
300.0
  1
40kHz/60kHz　自動選択
100
AcDbText
  0
TEXT
  5
81C
330
6C
100
AcDbEntity
  8
MOJI
  6
Continuous
 62
     4
100
AcDbText
 10
16000.22857542948
 20
-13430.00003801621
 30
0.0
 40
300.0
  1
受信感度　50dB
100
AcDbText
  0
TEXT
  5
81D
330
6C
100
AcDbEntity
  8
MOJI
  6
Continuous
 62
     4
100
AcDbText
 10
16000.22857542948
 20
-12230.00003801621
 30
0.0
 40
300.0
  1
受信周波数　長波帯標準電波
100
AcDbText
  0
TEXT
  5
81E
330
6C
100
AcDbEntity
  8
MOJI
  6
Continuous
 62
     4
100
AcDbText
 10
16000.22857542948
 20
-11030.00003801621
 30
0.0
 40
300.0
  1
樹脂製
100
AcDbText
  0
LINE
  5
81F
330
6C
100
AcDbEntity
  8
SEN
  6
Continuous
 62
     2
100
AcDbLine
 10
15500.22857542948
 20
-10500.00003801621
 30
0.0
 11
15500.2285754295
 21
-14099.99999999999
 31
0.0
  0
TEXT
  5
820
330
6C
100
AcDbEntity
  8
MOJI
  6
Continuous
 62
     4
100
AcDbText
 10
16000.22857542948
 20
-11630.00003801621
 30
0.0
 40
300.0
  1
DC5.4Ｖ　450mW
100
AcDbText
  0
ENDSEC
  0
SECTION
  2
OBJECTS
  0
DICTIONARY
  5
C
330
0
100
AcDbDictionary
281
     1
  3
ACAD_2007HEADERVARS_RT
350
96A
  3
ACAD_CIP_PREVIOUS_PRODUCT_INFO
350
77
  3
ACAD_COLOR
350
63
  3
ACAD_GROUP
350
D
  3
ACAD_LAYOUT
350
62
  3
ACAD_MATERIAL
350
10
  3
ACAD_MLEADERSTYLE
350
66
  3
ACAD_MLINESTYLE
350
5F
  3
ACAD_PLOTSETTINGS
350
61
  3
ACAD_PLOTSTYLENAME
350
E
  3
ACAD_SCALELIST
350
42
  3
ACAD_TABLESTYLE
350
64
  3
ACAD_VISUALSTYLE
350
29
  3
ACDB_RECOMPOSE_DATA
350
968
  3
AcDbVariableDictionary
350
872
  3
AcmDictionary
350
A4
  3
AMG
350
78
  3
AMGSNAPSETTINGS
350
491
  3
DWGPROPS
350
969
  0
DICTIONARY
  5
834
330
8
100
AcDbDictionary
280
     1
281
     1
  0
DICTIONARY
  5
FE
330
2
100
AcDbDictionary
280
     1
281
     1
  3
ACAD_LAYERSTATES
360
FF
  0
DICTIONARY
  5
E9
330
E8
100
AcDbDictionary
280
     1
281
     1
  0
DICTIONARY
  5
EB
330
EA
100
AcDbDictionary
280
     1
281
     1
  0
DICTIONARY
  5
ED
330
EC
100
AcDbDictionary
280
     1
281
     1
  0
DICTIONARY
  5
EF
330
EE
100
AcDbDictionary
280
     1
281
     1
  0
DICTIONARY
  5
F1
330
F0
100
AcDbDictionary
280
     1
281
     1
  0
DICTIONARY
  5
F3
330
F2
100
AcDbDictionary
280
     1
281
     1
  0
DICTIONARY
  5
96A
102
{ACAD_REACTORS
330
C
102
}
330
C
100
AcDbDictionary
281
     1
  3
DIMARCSYM
350
96B
  3
DIMJOGANG
350
96C
  3
DIMLTEX1
350
96E
  3
DIMLTEX2
350
96F
  3
DIMLTYPE
350
96D
  0
XRECORD
  5
77
102
{ACAD_REACTORS
330
C
102
}
330
C
100
AcDbXrecord
280
     1
300
AMECH_PP
300
2012
300
85733AMECH_PP_2012_0F
  0
DICTIONARY
  5
63
102
{ACAD_REACTORS
330
C
102
}
330
C
100
AcDbDictionary
281
     1
  0
DICTIONARY
  5
D
102
{ACAD_REACTORS
330
C
102
}
330
C
100
AcDbDictionary
281
     1
  0
DICTIONARY
  5
62
102
{ACAD_REACTORS
330
C
102
}
330
C
100
AcDbDictionary
281
     1
  3
Model
350
6F
  3
レイアウト1
350
6B
  3
レイアウト2
350
73
  0
DICTIONARY
  5
10
102
{ACAD_REACTORS
330
C
102
}
330
C
100
AcDbDictionary
281
     1
  3
ByBlock
350
19
  3
ByLayer
350
11
  3
Global
350
21
  0
DICTIONARY
  5
66
102
{ACAD_REACTORS
330
C
102
}
330
C
100
AcDbDictionary
281
     1
  3
Standard
350
67
  0
DICTIONARY
  5
5F
102
{ACAD_REACTORS
330
C
102
}
330
C
100
AcDbDictionary
281
     1
  3
Standard
350
60
  0
DICTIONARY
  5
61
102
{ACAD_REACTORS
330
C
102
}
330
C
100
AcDbDictionary
281
     1
  0
ACDBDICTIONARYWDFLT
  5
E
102
{ACAD_REACTORS
330
C
102
}
330
C
100
AcDbDictionary
281
     1
  3
Normal
350
F
100
AcDbDictionaryWithDefault
340
F
  0
DICTIONARY
  5
42
102
{ACAD_REACTORS
330
C
102
}
330
C
100
AcDbDictionary
281
     1
  3
A0
350
43
  3
A1
350
44
  3
A2
350
45
  3
A3
350
46
  3
A4
350
47
  3
A5
350
48
  3
A6
350
49
  3
A7
350
4A
  3
A8
350
4B
  3
A9
350
4C
  3
B0
350
4D
  3
B1
350
4E
  3
B2
350
4F
  3
B3
350
50
  3
B4
350
51
  3
B5
350
52
  3
B6
350
53
  0
DICTIONARY
  5
64
102
{ACAD_REACTORS
330
C
102
}
330
C
100
AcDbDictionary
281
     1
  3
Standard
350
65
  0
DICTIONARY
  5
29
102
{ACAD_REACTORS
330
C
102
}
330
C
100
AcDbDictionary
281
     1
  3
2dWireframe
350
2F
  3
3dWireframe
350
FD
  3
Basic
350
2E
  3
Brighten
350
35
  3
ColorChange
350
39
  3
Conceptual
350
32
  3
Dim
350
34
  3
EdgeColorOff
350
41
  3
Facepattern
350
38
  3
Flat
350
2A
  3
FlatWithEdges
350
2B
  3
Gouraud
350
2C
  3
GouraudWithEdges
350
2D
  3
Hidden
350
31
  3
JitterOff
350
3F
  3
Linepattern
350
37
  3
OverhangOff
350
40
  3
Realistic
350
33
  3
Shaded
350
3E
  3
Shaded with edges
350
3D
  3
Shades of Gray
350
3A
  3
Sketchy
350
3B
  3
Thicken
350
36
  3
Wireframe
350
30
  3
X-Ray
350
3C
  0
XRECORD
  5
968
102
{ACAD_REACTORS
330
C
102
}
330
C
100
AcDbXrecord
280
     1
 90
        1
330
65
  0
DICTIONARY
  5
872
102
{ACAD_REACTORS
330
C
102
}
330
C
100
AcDbDictionary
281
     1
  3
CANNOSCALE
350
876
  3
CMLEADERSTYLE
350
874
  3
CTABLESTYLE
350
873
  3
DIMASSOC
350
915
  3
HIDETEXT
350
914
  3
INDEXCTL
350
913
  3
LAYEREVAL
350
878
  3
LAYERNOTIFY
350
879
  3
LIGHTINGUNITS
350
877
  3
MSLTSCALE
350
875
  3
SORTENTS
350
912
  3
XCLIPFRAME
350
964
  0
DICTIONARY
  5
A4
102
{ACAD_REACTORS
330
C
102
}
330
C
100
AcDbDictionary
281
     1
  3
AcmStdDictionary
350
A6
  0
DICTIONARY
  5
78
102
{ACAD_REACTORS
330
C
102
}
330
C
100
AcDbDictionary
281
     1
  0
DICTIONARY
  5
491
102
{ACAD_REACTORS
330
C
102
}
330
C
100
AcDbDictionary
281
     1
  0
XRECORD
  5
969
102
{ACAD_REACTORS
330
C
102
}
330
C
100
AcDbXrecord
280
     1
  1
DWGPROPS COOKIE
  2

  3

  4

  6

  7

  8
tic-saito-taka
  9

300
=
301
=
302
=
303
=
304
=
305
=
306
=
307
=
308
=
309
=
 40
0.0076271296296296
 41
2456115.556929526
 42
2456189.481749039
  1

 90
        0
  0
DICTIONARY
  5
FF
102
{ACAD_REACTORS
330
FE
102
}
330
FE
100
AcDbDictionary
281
     1
  0
XRECORD
  5
96B
102
{ACAD_REACTORS
330
96A
102
}
330
96A
100
AcDbXrecord
280
     1
 70
     1
  0
XRECORD
  5
96C
102
{ACAD_REACTORS
330
96A
102
}
330
96A
100
AcDbXrecord
280
     1
 40
1.570796326794896
  0
XRECORD
  5
96E
102
{ACAD_REACTORS
330
96A
102
}
330
96A
100
AcDbXrecord
280
     1
340
5B
  0
XRECORD
  5
96F
102
{ACAD_REACTORS
330
96A
102
}
330
96A
100
AcDbXrecord
280
     1
340
5B
  0
XRECORD
  5
96D
102
{ACAD_REACTORS
330
96A
102
}
330
96A
100
AcDbXrecord
280
     1
340
5B
  0
LAYOUT
  5
6F
102
{ACAD_XDICTIONARY
360
9A6
102
}
102
{ACAD_REACTORS
330
62
102
}
330
62
100
AcDbPlotSettings
  1

  2
PDF Complete
  4

  6

 40
0.0
 41
0.0
 42
0.0
 43
0.0
 44
0.0
 45
0.0
 46
0.0
 47
0.0
 48
0.0
 49
0.0
140
0.0
141
0.0
142
1.0
143
1.0
 70
  1712
 72
     0
 73
     0
 74
     0
  7

 75
     0
147
1.0
148
0.0
149
0.0
100
AcDbLayout
  1
Model
 70
     1
 71
     0
 10
0.0
 20
0.0
 11
12.0
 21
9.0
 12
0.0
 22
0.0
 32
0.0
 14
0.0
 24
0.0
 34
0.0
 15
0.0
 25
0.0
 35
0.0
146
0.0
 13
0.0
 23
0.0
 33
0.0
 16
1.0
 26
0.0
 36
0.0
 17
0.0
 27
1.0
 37
0.0
 76
     0
330
6C
331
57
  0
LAYOUT
  5
6B
102
{ACAD_XDICTIONARY
360
9A4
102
}
102
{ACAD_REACTORS
330
62
102
}
330
62
100
AcDbPlotSettings
  1

  2
PDF Complete
  4

  6

 40
0.0
 41
0.0
 42
0.0
 43
0.0
 44
0.0
 45
0.0
 46
0.0
 47
0.0
 48
0.0
 49
0.0
140
0.0
141
0.0
142
1.0
143
1.0
 70
   688
 72
     0
 73
     0
 74
     5
  7

 75
    16
147
1.0
148
0.0
149
0.0
100
AcDbLayout
  1
レイアウト1
 70
     1
 71
     1
 10
0.0
 20
0.0
 11
420.0
 21
297.0
 12
0.0
 22
0.0
 32
0.0
 14
1.000000000000000E+20
 24
1.000000000000000E+20
 34
1.000000000000000E+20
 15
-1.000000000000000E+20
 25
-1.000000000000000E+20
 35
-1.000000000000000E+20
146
0.0
 13
0.0
 23
0.0
 33
0.0
 16
1.0
 26
0.0
 36
0.0
 17
0.0
 27
1.0
 37
0.0
 76
     0
330
68
  0
LAYOUT
  5
73
102
{ACAD_XDICTIONARY
360
9A8
102
}
102
{ACAD_REACTORS
330
62
102
}
330
62
100
AcDbPlotSettings
  1

  2
PDF Complete
  4

  6

 40
0.0
 41
0.0
 42
0.0
 43
0.0
 44
0.0
 45
0.0
 46
0.0
 47
0.0
 48
0.0
 49
0.0
140
0.0
141
0.0
142
1.0
143
1.0
 70
   688
 72
     0
 73
     0
 74
     5
  7

 75
    16
147
1.0
148
0.0
149
0.0
100
AcDbLayout
  1
レイアウト2
 70
     1
 71
     2
 10
0.0
 20
0.0
 11
12.0
 21
9.0
 12
0.0
 22
0.0
 32
0.0
 14
0.0
 24
0.0
 34
0.0
 15
0.0
 25
0.0
 35
0.0
146
0.0
 13
0.0
 23
0.0
 33
0.0
 16
1.0
 26
0.0
 36
0.0
 17
0.0
 27
1.0
 37
0.0
 76
     0
330
70
  0
MATERIAL
  5
19
102
{ACAD_XDICTIONARY
360
1A
102
}
102
{ACAD_REACTORS
330
10
102
}
330
10
100
AcDbMaterial
  1
ByBlock
 72
     0
 43
0.0208333333333333
 43
0.0
 43
0.0
 43
0.0
 43
0.0
 43
0.0208333333333333
 43
0.0
 43
0.0
 43
0.0
 43
0.0
 43
1.0
 43
0.0
 43
0.0
 43
0.0
 43
0.0
 43
1.0
 77
     0
 47
0.0208333333333333
 47
0.0
 47
0.0
 47
0.0
 47
0.0
 47
0.0208333333333333
 47
0.0
 47
0.0
 47
0.0
 47
0.0
 47
1.0
 47
0.0
 47
0.0
 47
0.0
 47
0.0
 47
1.0
171
     0
 49
0.0208333333333333
 49
0.0
 49
0.0
 49
0.0
 49
0.0
 49
0.0208333333333333
 49
0.0
 49
0.0
 49
0.0
 49
0.0
 49
1.0
 49
0.0
 49
0.0
 49
0.0
 49
0.0
 49
1.0
175
     0
142
0.0208333333333333
142
0.0
142
0.0
142
0.0
142
0.0
142
0.0208333333333333
142
0.0
142
0.0
142
0.0
142
0.0
142
1.0
142
0.0
142
0.0
142
0.0
142
0.0
142
1.0
179
     0
144
0.0208333333333333
144
0.0
144
0.0
144
0.0
144
0.0
144
0.0208333333333333
144
0.0
144
0.0
144
0.0
144
0.0
144
1.0
144
0.0
144
0.0
144
0.0
144
0.0
144
1.0
147
0.0208333333333333
147
0.0
147
0.0
147
0.0
147
0.0
147
0.0208333333333333
147
0.0
147
0.0
147
0.0
147
0.0
147
1.0
147
0.0
147
0.0
147
0.0
147
0.0
147
1.0
  0
MATERIAL
  5
11
102
{ACAD_XDICTIONARY
360
12
102
}
102
{ACAD_REACTORS
330
10
102
}
330
10
100
AcDbMaterial
  1
ByLayer
 72
     0
 43
0.0208333333333333
 43
0.0
 43
0.0
 43
0.0
 43
0.0
 43
0.0208333333333333
 43
0.0
 43
0.0
 43
0.0
 43
0.0
 43
1.0
 43
0.0
 43
0.0
 43
0.0
 43
0.0
 43
1.0
 77
     0
 47
0.0208333333333333
 47
0.0
 47
0.0
 47
0.0
 47
0.0
 47
0.0208333333333333
 47
0.0
 47
0.0
 47
0.0
 47
0.0
 47
1.0
 47
0.0
 47
0.0
 47
0.0
 47
0.0
 47
1.0
171
     0
 49
0.0208333333333333
 49
0.0
 49
0.0
 49
0.0
 49
0.0
 49
0.0208333333333333
 49
0.0
 49
0.0
 49
0.0
 49
0.0
 49
1.0
 49
0.0
 49
0.0
 49
0.0
 49
0.0
 49
1.0
175
     0
142
0.0208333333333333
142
0.0
142
0.0
142
0.0
142
0.0
142
0.0208333333333333
142
0.0
142
0.0
142
0.0
142
0.0
142
1.0
142
0.0
142
0.0
142
0.0
142
0.0
142
1.0
179
     0
144
0.0208333333333333
144
0.0
144
0.0
144
0.0
144
0.0
144
0.0208333333333333
144
0.0
144
0.0
144
0.0
144
0.0
144
1.0
144
0.0
144
0.0
144
0.0
144
0.0
144
1.0
147
0.0208333333333333
147
0.0
147
0.0
147
0.0
147
0.0
147
0.0208333333333333
147
0.0
147
0.0
147
0.0
147
0.0
147
1.0
147
0.0
147
0.0
147
0.0
147
0.0
147
1.0
  0
MATERIAL
  5
21
102
{ACAD_XDICTIONARY
360
22
102
}
102
{ACAD_REACTORS
330
10
102
}
330
10
100
AcDbMaterial
  1
Global
 72
     0
 43
0.0208333333333333
 43
0.0
 43
0.0
 43
0.0
 43
0.0
 43
0.0208333333333333
 43
0.0
 43
0.0
 43
0.0
 43
0.0
 43
1.0
 43
0.0
 43
0.0
 43
0.0
 43
0.0
 43
1.0
 77
     0
 47
0.0208333333333333
 47
0.0
 47
0.0
 47
0.0
 47
0.0
 47
0.0208333333333333
 47
0.0
 47
0.0
 47
0.0
 47
0.0
 47
1.0
 47
0.0
 47
0.0
 47
0.0
 47
0.0
 47
1.0
171
     0
 49
0.0208333333333333
 49
0.0
 49
0.0
 49
0.0
 49
0.0
 49
0.0208333333333333
 49
0.0
 49
0.0
 49
0.0
 49
0.0
 49
1.0
 49
0.0
 49
0.0
 49
0.0
 49
0.0
 49
1.0
175
     0
142
0.0208333333333333
142
0.0
142
0.0
142
0.0
142
0.0
142
0.0208333333333333
142
0.0
142
0.0
142
0.0
142
0.0
142
1.0
142
0.0
142
0.0
142
0.0
142
0.0
142
1.0
179
     0
144
0.0208333333333333
144
0.0
144
0.0
144
0.0
144
0.0
144
0.0208333333333333
144
0.0
144
0.0
144
0.0
144
0.0
144
1.0
144
0.0
144
0.0
144
0.0
144
0.0
144
1.0
147
0.0208333333333333
147
0.0
147
0.0
147
0.0
147
0.0
147
0.0208333333333333
147
0.0
147
0.0
147
0.0
147
0.0
147
1.0
147
0.0
147
0.0
147
0.0
147
0.0
147
1.0
  0
MLEADERSTYLE
  5
67
102
{ACAD_XDICTIONARY
360
966
102
}
102
{ACAD_REACTORS
330
66
102
}
330
66
100
AcDbMLeaderStyle
170
     2
171
     1
172
     0
 90
        2
 40
0.0
 41
0.0
173
     1
 91
-1056964608
340
5B
 92
       -2
290
     1
 42
0.09
291
     1
 43
0.36
  3
Standard
 44
0.18
300

342
55
174
     1
178
     6
175
     1
176
     0
 93
-1056964608
 45
0.18
292
     0
297
     0
 46
0.18
 94
-1056964608
 47
1.0
 49
1.0
140
1.0
293
     1
141
0.0
294
     1
177
     0
142
1.0
295
     0
296
     0
143
0.125
1001
ACAD_MLEADERVER
1070
     2
  0
MLINESTYLE
  5
60
102
{ACAD_REACTORS
330
5F
102
}
330
5F
100
AcDbMlineStyle
  2
STANDARD
 70
     0
  3

 62
   256
 51
90.0
 52
90.0
 71
     2
 49
0.5
 62
   256
  6
BYLAYER
 49
-0.5
 62
   256
  6
BYLAYER
  0
ACDBPLACEHOLDER
  5
F
102
{ACAD_REACTORS
330
E
102
}
330
E
  0
SCALE
  5
43
102
{ACAD_REACTORS
330
42
102
}
330
42
100
AcDbScale
 70
     0
300
1:1
140
1.0
141
1.0
290
     1
  0
SCALE
  5
44
102
{ACAD_REACTORS
330
42
102
}
330
42
100
AcDbScale
 70
     0
300
1:2
140
1.0
141
2.0
290
     0
  0
SCALE
  5
45
102
{ACAD_REACTORS
330
42
102
}
330
42
100
AcDbScale
 70
     0
300
1:4
140
1.0
141
4.0
290
     0
  0
SCALE
  5
46
102
{ACAD_REACTORS
330
42
102
}
330
42
100
AcDbScale
 70
     0
300
1:5
140
1.0
141
5.0
290
     0
  0
SCALE
  5
47
102
{ACAD_REACTORS
330
42
102
}
330
42
100
AcDbScale
 70
     0
300
1:8
140
1.0
141
8.0
290
     0
  0
SCALE
  5
48
102
{ACAD_REACTORS
330
42
102
}
330
42
100
AcDbScale
 70
     0
300
1:10
140
1.0
141
10.0
290
     0
  0
SCALE
  5
49
102
{ACAD_REACTORS
330
42
102
}
330
42
100
AcDbScale
 70
     0
300
1:16
140
1.0
141
16.0
290
     0
  0
SCALE
  5
4A
102
{ACAD_REACTORS
330
42
102
}
330
42
100
AcDbScale
 70
     0
300
1:20
140
1.0
141
20.0
290
     0
  0
SCALE
  5
4B
102
{ACAD_REACTORS
330
42
102
}
330
42
100
AcDbScale
 70
     0
300
1:30
140
1.0
141
30.0
290
     0
  0
SCALE
  5
4C
102
{ACAD_REACTORS
330
42
102
}
330
42
100
AcDbScale
 70
     0
300
1:40
140
1.0
141
40.0
290
     0
  0
SCALE
  5
4D
102
{ACAD_REACTORS
330
42
102
}
330
42
100
AcDbScale
 70
     0
300
1:50
140
1.0
141
50.0
290
     0
  0
SCALE
  5
4E
102
{ACAD_REACTORS
330
42
102
}
330
42
100
AcDbScale
 70
     0
300
1:100
140
1.0
141
100.0
290
     0
  0
SCALE
  5
4F
102
{ACAD_REACTORS
330
42
102
}
330
42
100
AcDbScale
 70
     0
300
2:1
140
2.0
141
1.0
290
     0
  0
SCALE
  5
50
102
{ACAD_REACTORS
330
42
102
}
330
42
100
AcDbScale
 70
     0
300
4:1
140
4.0
141
1.0
290
     0
  0
SCALE
  5
51
102
{ACAD_REACTORS
330
42
102
}
330
42
100
AcDbScale
 70
     0
300
8:1
140
8.0
141
1.0
290
     0
  0
SCALE
  5
52
102
{ACAD_REACTORS
330
42
102
}
330
42
100
AcDbScale
 70
     0
300
10:1
140
10.0
141
1.0
290
     0
  0
SCALE
  5
53
102
{ACAD_REACTORS
330
42
102
}
330
42
100
AcDbScale
 70
     0
300
100:1
140
100.0
141
1.0
290
     0
  0
TABLESTYLE
  5
65
102
{ACAD_XDICTIONARY
360
82A
102
}
102
{ACAD_REACTORS
330
64
102
}
330
64
100
AcDbTableStyle
  3
Standard
 70
     0
 71
     0
 40
1.5
 41
1.5
280
     0
281
     0
  7
STANDARD
140
4.5
170
     2
 62
     0
 63
     7
283
     0
274
    -2
284
     1
 64
     0
275
    -2
285
     1
 65
     0
276
    -2
286
     1
 66
     0
277
    -2
287
     1
 67
     0
278
    -2
288
     1
 68
     0
279
    -2
289
     1
 69
     0
  7
STANDARD
140
6.0
170
     5
 62
     0
 63
     7
283
     0
274
    -2
284
     1
 64
     0
275
    -2
285
     1
 65
     0
276
    -2
286
     1
 66
     0
277
    -2
287
     1
 67
     0
278
    -2
288
     1
 68
     0
279
    -2
289
     1
 69
     0
  7
STANDARD
140
4.5
170
     5
 62
     0
 63
     7
283
     0
274
    -2
284
     1
 64
     0
275
    -2
285
     1
 65
     0
276
    -2
286
     1
 66
     0
277
    -2
287
     1
 67
     0
278
    -2
288
     1
 68
     0
279
    -2
289
     1
 69
     0
  0
VISUALSTYLE
  5
2F
102
{ACAD_XDICTIONARY
360
97D
102
}
102
{ACAD_REACTORS
330
29
102
}
330
29
100
AcDbVisualStyle
  2
2dWireframe
 70
     4
 71
     0
 72
     2
 73
     0
 90
        0
 40
-0.6
 41
-30.0
 62
     5
 63
     7
 74
     1
 91
        4
 64
     7
 65
   257
 75
     1
175
     1
 42
1.0
 92
        0
 66
   257
 43
1.0
 76
     1
 77
     6
 78
     2
 67
     7
 79
     5
170
     0
171
     0
290
     0
174
     0
 93
        1
 44
0.0
173
     0
291
     0
 45
0.0
1001
ACAD
1000
AcDbSavedByObjectVersion
1070
     0
  0
VISUALSTYLE
  5
FD
102
{ACAD_XDICTIONARY
360
9AA
102
}
102
{ACAD_REACTORS
330
29
102
}
330
29
100
AcDbVisualStyle
  2
3dWireframe
 70
     5
 71
     0
 72
     2
 73
     0
 90
        0
 40
-0.6
 41
-30.0
 62
     5
 63
     7
 74
     1
 91
        4
 64
     7
 65
   257
 75
     1
175
     1
 42
1.0
 92
        0
 66
   257
 43
1.0
 76
     1
 77
     6
 78
     2
 67
     7
 79
     5
170
     0
171
     0
290
     0
174
     0
 93
        1
 44
0.0
173
     0
291
     0
 45
0.0
1001
ACAD
1000
AcDbSavedByObjectVersion
1070
     0
  0
VISUALSTYLE
  5
2E
102
{ACAD_XDICTIONARY
360
97B
102
}
102
{ACAD_REACTORS
330
29
102
}
330
29
100
AcDbVisualStyle
  2
Basic
 70
     7
 71
     1
 72
     0
 73
     1
 90
        0
 40
-0.6
 41
-30.0
 62
     5
 63
     7
 74
     0
 91
        4
 64
     7
 65
   257
 75
     1
175
     1
 42
1.0
 92
        8
 66
     7
 43
1.0
 76
     1
 77
     6
 78
     2
 67
     7
 79
     5
170
     0
171
     0
290
     0
174
     0
 93
        1
 44
0.0
173
     0
291
     1
 45
0.0
1001
ACAD
1000
AcDbSavedByObjectVersion
1070
     0
  0
VISUALSTYLE
  5
35
102
{ACAD_XDICTIONARY
360
989
102
}
102
{ACAD_REACTORS
330
29
102
}
330
29
100
AcDbVisualStyle
  2
Brighten
 70
    12
 71
     2
 72
     2
 73
     0
 90
        0
 40
-0.6
 41
-30.0
 62
     5
 63
     7
 74
     1
 91
        4
 64
     7
 65
   257
 75
     1
175
     1
 42
1.0
 92
        8
 66
     7
 43
1.0
 76
     1
 77
     6
 78
     2
 67
     7
 79
     5
170
     0
171
     0
290
     0
174
     0
 93
        1
 44
50.0
173
     0
291
     1
 45
0.0
1001
ACAD
1000
AcDbSavedByObjectVersion
1070
     0
  0
VISUALSTYLE
  5
39
102
{ACAD_XDICTIONARY
360
991
102
}
102
{ACAD_REACTORS
330
29
102
}
330
29
100
AcDbVisualStyle
  2
ColorChange
 70
    16
 71
     2
 72
     2
 73
     3
 90
        0
 40
-0.6
 41
-30.0
 62
     5
 63
     8
 74
     1
 91
        4
 64
     7
 65
   257
 75
     1
175
     1
 42
1.0
 92
        8
 66
     8
 43
1.0
 76
     1
 77
     6
 78
     2
 67
     7
 79
     5
170
     0
171
     0
290
     0
174
     0
 93
        1
 44
0.0
173
     0
291
     1
 45
0.0
1001
ACAD
1000
AcDbSavedByObjectVersion
1070
     0
  0
VISUALSTYLE
  5
32
102
{ACAD_XDICTIONARY
360
983
102
}
102
{ACAD_REACTORS
330
29
102
}
330
29
100
AcDbVisualStyle
  2
Conceptual
 70
     9
 71
     3
 72
     2
 73
     0
 90
        0
 40
-0.6
 41
-30.0
 62
     5
 63
     7
 74
     2
 91
        2
 64
     7
 65
   257
 75
     1
175
     1
 42
179.0
 92
        8
 66
     7
 43
1.0
 76
     1
 77
     6
 78
     2
 67
     7
 79
     3
170
     0
171
     0
290
     0
174
     0
 93
        1
 44
0.0
173
     0
291
     0
 45
0.0
1001
ACAD
1000
AcDbSavedByObjectVersion
1070
     0
  0
VISUALSTYLE
  5
34
102
{ACAD_XDICTIONARY
360
987
102
}
102
{ACAD_REACTORS
330
29
102
}
330
29
100
AcDbVisualStyle
  2
Dim
 70
    11
 71
     2
 72
     2
 73
     0
 90
        0
 40
-0.6
 41
-30.0
 62
     5
 63
     7
 74
     1
 91
        4
 64
     7
 65
   257
 75
     1
175
     1
 42
1.0
 92
        8
 66
     7
 43
1.0
 76
     1
 77
     6
 78
     2
 67
     7
 79
     5
170
     0
171
     0
290
     0
174
     0
 93
        1
 44
-50.0
173
     0
291
     1
 45
0.0
1001
ACAD
1000
AcDbSavedByObjectVersion
1070
     0
  0
VISUALSTYLE
  5
41
102
{ACAD_XDICTIONARY
360
9A1
102
}
102
{ACAD_REACTORS
330
29
102
}
330
29
100
AcDbVisualStyle
  2
EdgeColorOff
 70
    22
 71
     2
 72
     2
 73
     0
 90
        0
 40
-0.6
 41
-30.0
 62
     5
 63
     7
 74
     1
 91
        4
 64
     7
 65
   257
 75
     1
175
     1
 42
1.0
 92
        8
 66
     7
 43
1.0
 76
     1
 77
     6
 78
     2
 67
     7
 79
     5
170
     0
171
     0
290
     0
174
     0
 93
        1
 44
0.0
173
     0
291
     1
 45
0.0
1001
ACAD
1000
AcDbSavedByObjectVersion
1070
     0
  0
VISUALSTYLE
  5
38
102
{ACAD_XDICTIONARY
360
98F
102
}
102
{ACAD_REACTORS
330
29
102
}
330
29
100
AcDbVisualStyle
  2
Facepattern
 70
    15
 71
     2
 72
     2
 73
     0
 90
        0
 40
-0.6
 41
-30.0
 62
     5
 63
     7
 74
     1
 91
        4
 64
     7
 65
   257
 75
     1
175
     1
 42
1.0
 92
        8
 66
     7
 43
1.0
 76
     1
 77
     6
 78
     2
 67
     7
 79
     5
170
     0
171
     0
290
     0
174
     0
 93
        1
 44
0.0
173
     0
291
     1
 45
0.0
1001
ACAD
1000
AcDbSavedByObjectVersion
1070
     0
  0
VISUALSTYLE
  5
2A
102
{ACAD_XDICTIONARY
360
973
102
}
102
{ACAD_REACTORS
330
29
102
}
330
29
100
AcDbVisualStyle
  2
Flat
 70
     0
 71
     2
 72
     1
 73
     1
 90
        2
 40
-0.6
 41
30.0
 62
     5
 63
     7
 74
     0
 91
        0
 64
     7
 65
   257
 75
     1
175
     1
 42
1.0
 92
        8
 66
     7
 43
1.0
 76
     1
 77
     6
 78
     2
 67
     7
 79
     5
170
     0
171
     0
290
     0
174
     0
 93
       13
 44
0.0
173
     0
291
     1
 45
0.0
1001
ACAD
1000
AcDbSavedByObjectVersion
1070
     0
  0
VISUALSTYLE
  5
2B
102
{ACAD_XDICTIONARY
360
975
102
}
102
{ACAD_REACTORS
330
29
102
}
330
29
100
AcDbVisualStyle
  2
FlatWithEdges
 70
     1
 71
     2
 72
     1
 73
     1
 90
        2
 40
-0.6
 41
30.0
 62
     5
 63
     7
 74
     1
 91
        0
 64
     7
 65
   257
 75
     1
175
     1
 42
1.0
 92
        0
 66
   257
 43
1.0
 76
     1
 77
     6
 78
     2
 67
     7
 79
     5
170
     0
171
     0
290
     0
174
     0
 93
       13
 44
0.0
173
     0
291
     1
 45
0.0
1001
ACAD
1000
AcDbSavedByObjectVersion
1070
     0
  0
VISUALSTYLE
  5
2C
102
{ACAD_XDICTIONARY
360
977
102
}
102
{ACAD_REACTORS
330
29
102
}
330
29
100
AcDbVisualStyle
  2
Gouraud
 70
     2
 71
     2
 72
     2
 73
     1
 90
        2
 40
-0.6
 41
30.0
 62
     5
 63
     7
 74
     0
 91
        0
 64
     7
 65
   257
 75
     1
175
     1
 42
1.0
 92
        0
 66
     7
 43
1.0
 76
     1
 77
     6
 78
     2
 67
     7
 79
     5
170
     0
171
     0
290
     0
174
     0
 93
       13
 44
0.0
173
     0
291
     1
 45
0.0
1001
ACAD
1000
AcDbSavedByObjectVersion
1070
     0
  0
VISUALSTYLE
  5
2D
102
{ACAD_XDICTIONARY
360
979
102
}
102
{ACAD_REACTORS
330
29
102
}
330
29
100
AcDbVisualStyle
  2
GouraudWithEdges
 70
     3
 71
     2
 72
     2
 73
     1
 90
        2
 40
-0.6
 41
30.0
 62
     5
 63
     7
 74
     1
 91
        0
 64
     7
 65
   257
 75
     1
175
     1
 42
1.0
 92
        0
 66
   257
 43
1.0
 76
     1
 77
     6
 78
     2
 67
     7
 79
     5
170
     0
171
     0
290
     0
174
     0
 93
       13
 44
0.0
173
     0
291
     1
 45
0.0
1001
ACAD
1000
AcDbSavedByObjectVersion
1070
     0
  0
VISUALSTYLE
  5
31
102
{ACAD_XDICTIONARY
360
981
102
}
102
{ACAD_REACTORS
330
29
102
}
330
29
100
AcDbVisualStyle
  2
Hidden
 70
     6
 71
     1
 72
     2
 73
     2
 90
        0
 40
-0.6
 41
-30.0
 62
     5
 63
     7
 74
     2
 91
        2
 64
     7
 65
   257
 75
     2
175
     1
 42
40.0
 92
        0
 66
   257
 43
1.0
 76
     1
 77
     6
 78
     2
 67
     7
 79
     3
170
     0
171
     0
290
     0
174
     0
 93
        1
 44
0.0
173
     0
291
     0
 45
0.0
1001
ACAD
1000
AcDbSavedByObjectVersion
1070
     0
  0
VISUALSTYLE
  5
3F
102
{ACAD_XDICTIONARY
360
99D
102
}
102
{ACAD_REACTORS
330
29
102
}
330
29
100
AcDbVisualStyle
  2
JitterOff
 70
    20
 71
     2
 72
     2
 73
     0
 90
        0
 40
-0.6
 41
-30.0
 62
     5
 63
     7
 74
     1
 91
        4
 64
     7
 65
   257
 75
     1
175
     1
 42
1.0
 92
       10
 66
     7
 43
1.0
 76
     1
 77
     6
 78
     2
 67
     7
 79
     5
170
     0
171
     0
290
     0
174
     0
 93
        1
 44
0.0
173
     0
291
     1
 45
0.0
1001
ACAD
1000
AcDbSavedByObjectVersion
1070
     0
  0
VISUALSTYLE
  5
37
102
{ACAD_XDICTIONARY
360
98D
102
}
102
{ACAD_REACTORS
330
29
102
}
330
29
100
AcDbVisualStyle
  2
Linepattern
 70
    14
 71
     2
 72
     2
 73
     0
 90
        0
 40
-0.6
 41
-30.0
 62
     5
 63
     7
 74
     1
 91
        4
 64
     7
 65
   257
 75
     7
175
     7
 42
1.0
 92
        8
 66
     7
 43
1.0
 76
     1
 77
     6
 78
     2
 67
     7
 79
     5
170
     0
171
     0
290
     0
174
     0
 93
        1
 44
0.0
173
     0
291
     1
 45
0.0
1001
ACAD
1000
AcDbSavedByObjectVersion
1070
     0
  0
VISUALSTYLE
  5
40
102
{ACAD_XDICTIONARY
360
99F
102
}
102
{ACAD_REACTORS
330
29
102
}
330
29
100
AcDbVisualStyle
  2
OverhangOff
 70
    21
 71
     2
 72
     2
 73
     0
 90
        0
 40
-0.6
 41
-30.0
 62
     5
 63
     7
 74
     1
 91
        4
 64
     7
 65
   257
 75
     1
175
     1
 42
1.0
 92
        9
 66
     7
 43
1.0
 76
     1
 77
     6
 78
     2
 67
     7
 79
     5
170
     0
171
     0
290
     0
174
     0
 93
        1
 44
0.0
173
     0
291
     1
 45
0.0
1001
ACAD
1000
AcDbSavedByObjectVersion
1070
     0
  0
VISUALSTYLE
  5
33
102
{ACAD_XDICTIONARY
360
985
102
}
102
{ACAD_REACTORS
330
29
102
}
330
29
100
AcDbVisualStyle
  2
Realistic
 70
     8
 71
     2
 72
     2
 73
     0
 90
        2
 40
-0.6
 41
30.0
 62
     5
 63
     7
 74
     0
 91
        0
 64
     7
 65
   257
 75
     1
175
     1
 42
1.0
 92
        8
 66
   257
 43
1.0
 76
     1
 77
     6
 78
     2
 67
     7
 79
     3
170
     0
171
     0
290
     0
174
     0
 93
       13
 44
0.0
173
     0
291
     0
 45
0.0
1001
ACAD
1000
AcDbSavedByObjectVersion
1070
     0
  0
VISUALSTYLE
  5
3E
102
{ACAD_XDICTIONARY
360
99B
102
}
102
{ACAD_REACTORS
330
29
102
}
330
29
100
AcDbVisualStyle
  2
Shaded
 70
    27
 71
     2
 72
     2
 73
     1
 90
        2
 40
-0.6
 41
30.0
 62
     5
 63
     7
 74
     0
 91
        4
 64
     7
 65
   257
 75
     1
175
     1
 42
1.0
 92
        8
 66
   257
 43
1.0
 76
     1
 77
     6
 78
     2
 67
     8
 79
     3
170
     0
171
     0
290
     0
174
     0
 93
        5
 44
0.0
173
     0
291
     0
 45
0.0
1001
ACAD
1000
AcDbSavedByObjectVersion
1070
     0
  0
VISUALSTYLE
  5
3D
102
{ACAD_XDICTIONARY
360
999
102
}
102
{ACAD_REACTORS
330
29
102
}
330
29
100
AcDbVisualStyle
  2
Shaded with edges
 70
    26
 71
     2
 72
     2
 73
     1
 90
        2
 40
-0.6
 41
30.0
 62
     5
 63
     7
 74
     1
 91
       10
 64
     7
 65
   257
 75
     2
175
     1
 42
1.0
 92
        8
 66
   257
 43
1.0
 76
     1
 77
     6
 78
     2
 67
     7
 79
     3
170
     0
171
     0
290
     0
174
     0
 93
        5
 44
0.0
173
     0
291
     0
 45
0.0
1001
ACAD
1000
AcDbSavedByObjectVersion
1070
     0
  0
VISUALSTYLE
  5
3A
102
{ACAD_XDICTIONARY
360
993
102
}
102
{ACAD_REACTORS
330
29
102
}
330
29
100
AcDbVisualStyle
  2
Shades of Gray
 70
    23
 71
     2
 72
     2
 73
     3
 90
        0
 40
-0.6
 41
-30.0
 62
     5
 63
     7
 74
     2
 91
        2
 64
     7
 65
     7
 75
     1
175
     1
 42
40.0
 92
        8
 66
     7
 43
1.0
 76
     1
 77
     6
 78
     2
 67
     7
 79
     3
170
     0
171
     0
290
     0
174
     0
 93
        1
 44
0.0
173
     0
291
     0
 45
0.0
1001
ACAD
1000
AcDbSavedByObjectVersion
1070
     0
  0
VISUALSTYLE
  5
3B
102
{ACAD_XDICTIONARY
360
995
102
}
102
{ACAD_REACTORS
330
29
102
}
330
29
100
AcDbVisualStyle
  2
Sketchy
 70
    24
 71
     1
 72
     2
 73
     2
 90
        0
 40
-0.6
 41
-30.0
 62
     5
 63
     7
 74
     2
 91
        2
 64
     7
 65
     7
 75
     1
175
     1
 42
40.0
 92
       11
 66
     7
 43
1.0
 76
     1
 77
     6
 78
     2
 67
     7
 79
     6
170
     0
171
     0
290
     0
174
     0
 93
        1
 44
0.0
173
     0
291
     0
 45
0.0
1001
ACAD
1000
AcDbSavedByObjectVersion
1070
     0
  0
VISUALSTYLE
  5
36
102
{ACAD_XDICTIONARY
360
98B
102
}
102
{ACAD_REACTORS
330
29
102
}
330
29
100
AcDbVisualStyle
  2
Thicken
 70
    13
 71
     2
 72
     2
 73
     0
 90
        0
 40
-0.6
 41
-30.0
 62
     5
 63
     7
 74
     1
 91
        4
 64
     7
 65
   257
 75
     1
175
     1
 42
1.0
 92
       12
 66
     7
 43
1.0
 76
     1
 77
     6
 78
     2
 67
     7
 79
     5
170
     0
171
     0
290
     0
174
     0
 93
        1
 44
0.0
173
     0
291
     1
 45
0.0
1001
ACAD
1000
AcDbSavedByObjectVersion
1070
     0
  0
VISUALSTYLE
  5
30
102
{ACAD_XDICTIONARY
360
97F
102
}
102
{ACAD_REACTORS
330
29
102
}
330
29
100
AcDbVisualStyle
  2
Wireframe
 70
     5
 71
     0
 72
     2
 73
     0
 90
        0
 40
-0.6
 41
-30.0
 62
     5
 63
     7
 74
     1
 91
        4
 64
     7
 65
   257
 75
     1
175
     1
 42
1.0
 92
        0
 66
   257
 43
1.0
 76
     1
 77
     6
 78
     2
 67
     7
 79
     3
170
     0
171
     0
290
     0
174
     0
 93
        1
 44
0.0
173
     0
291
     0
 45
0.0
1001
ACAD
1000
AcDbSavedByObjectVersion
1070
     0
  0
VISUALSTYLE
  5
3C
102
{ACAD_XDICTIONARY
360
997
102
}
102
{ACAD_REACTORS
330
29
102
}
330
29
100
AcDbVisualStyle
  2
X-Ray
 70
    25
 71
     2
 72
     2
 73
     1
 90
        1
 40
0.5
 41
-30.0
 62
     5
 63
     7
 74
     1
 91
        0
 64
     7
 65
   257
 75
     1
175
     1
 42
1.0
 92
        8
 66
     7
 43
1.0
 76
     1
 77
     6
 78
     2
 67
     7
 79
     3
170
     0
171
     0
290
     0
174
     0
 93
       13
 44
0.0
173
     0
291
     0
 45
0.0
1001
ACAD
1000
AcDbSavedByObjectVersion
1070
     0
  0
DICTIONARYVAR
  5
876
102
{ACAD_REACTORS
330
872
102
}
330
872
100
DictionaryVariables
280
     0
  1
1:1
  0
DICTIONARYVAR
  5
874
102
{ACAD_REACTORS
330
872
102
}
330
872
100
DictionaryVariables
280
     0
  1
STANDARD
  0
DICTIONARYVAR
  5
873
102
{ACAD_REACTORS
330
872
102
}
330
872
100
DictionaryVariables
280
     0
  1
STANDARD
  0
DICTIONARYVAR
  5
915
102
{ACAD_REACTORS
330
872
102
}
330
872
100
DictionaryVariables
280
     0
  1
2
  0
DICTIONARYVAR
  5
914
102
{ACAD_REACTORS
330
872
102
}
330
872
100
DictionaryVariables
280
     0
  1
1
  0
DICTIONARYVAR
  5
913
102
{ACAD_REACTORS
330
872
102
}
330
872
100
DictionaryVariables
280
     0
  1
0
  0
DICTIONARYVAR
  5
878
102
{ACAD_REACTORS
330
872
102
}
330
872
100
DictionaryVariables
280
     0
  1
0
  0
DICTIONARYVAR
  5
879
102
{ACAD_REACTORS
330
872
102
}
330
872
100
DictionaryVariables
280
     0
  1
0
  0
DICTIONARYVAR
  5
877
102
{ACAD_REACTORS
330
872
102
}
330
872
100
DictionaryVariables
280
     0
  1
2
  0
DICTIONARYVAR
  5
875
102
{ACAD_REACTORS
330
872
102
}
330
872
100
DictionaryVariables
280
     0
  1
1
  0
DICTIONARYVAR
  5
912
102
{ACAD_REACTORS
330
872
102
}
330
872
100
DictionaryVariables
280
     0
  1
127
  0
DICTIONARYVAR
  5
964
102
{ACAD_REACTORS
330
872
102
}
330
872
100
DictionaryVariables
280
     0
  1
2
  0
DICTIONARY
  5
A6
102
{ACAD_REACTORS
330
A4
102
}
330
A4
100
AcDbDictionary
281
     1
  0
DICTIONARY
  5
9A6
330
6F
100
AcDbDictionary
280
     1
281
     1
  3
ACAD_XREC_ROUNDTRIP
360
9A7
  0
DICTIONARY
  5
9A4
330
6B
100
AcDbDictionary
280
     1
281
     1
  3
ACAD_XREC_ROUNDTRIP
360
9A5
  0
DICTIONARY
  5
9A8
330
73
100
AcDbDictionary
280
     1
281
     1
  3
ACAD_XREC_ROUNDTRIP
360
9A9
  0
DICTIONARY
  5
1A
330
19
100
AcDbDictionary
280
     1
281
     1
  3
ACAD_XREC_ROUNDTRIP
360
971
  3
BUMPTILE
360
1C
  3
DIFFUSETILE
360
1B
  3
OPACITYTILE
360
1F
  3
REFLECTIONTILE
360
1E
  3
REFRACTIONTILE
360
20
  3
SPECULARTILE
360
1D
  0
DICTIONARY
  5
12
330
11
100
AcDbDictionary
280
     1
281
     1
  3
ACAD_XREC_ROUNDTRIP
360
970
  3
BUMPTILE
360
14
  3
DIFFUSETILE
360
13
  3
OPACITYTILE
360
17
  3
REFLECTIONTILE
360
16
  3
REFRACTIONTILE
360
18
  3
SPECULARTILE
360
15
  0
DICTIONARY
  5
22
330
21
100
AcDbDictionary
280
     1
281
     1
  3
ACAD_XREC_ROUNDTRIP
360
972
  3
BUMPTILE
360
24
  3
DIFFUSETILE
360
23
  3
OPACITYTILE
360
27
  3
REFLECTIONTILE
360
26
  3
REFRACTIONTILE
360
28
  3
SPECULARTILE
360
25
  0
DICTIONARY
  5
966
330
67
100
AcDbDictionary
280
     1
281
     1
  3
ACAD_XREC_ROUNDTRIP
360
967
  0
DICTIONARY
  5
82A
330
65
100
AcDbDictionary
280
     1
281
     1
  3
ACAD_ROUNDTRIP_2008_TABLESTYLE_CELLSTYLEMAP
360
965
  3
ACAD_XREC_ROUNDTRIP
360
9A3
  0
DICTIONARY
  5
97D
330
2F
100
AcDbDictionary
280
     1
281
     1
  3
ACAD_XREC_ROUNDTRIP
360
97E
  0
DICTIONARY
  5
9AA
330
FD
100
AcDbDictionary
280
     1
281
     1
  3
ACAD_XREC_ROUNDTRIP
360
9AB
  0
DICTIONARY
  5
97B
330
2E
100
AcDbDictionary
280
     1
281
     1
  3
ACAD_XREC_ROUNDTRIP
360
97C
  0
DICTIONARY
  5
989
330
35
100
AcDbDictionary
280
     1
281
     1
  3
ACAD_XREC_ROUNDTRIP
360
98A
  0
DICTIONARY
  5
991
330
39
100
AcDbDictionary
280
     1
281
     1
  3
ACAD_XREC_ROUNDTRIP
360
992
  0
DICTIONARY
  5
983
330
32
100
AcDbDictionary
280
     1
281
     1
  3
ACAD_XREC_ROUNDTRIP
360
984
  0
DICTIONARY
  5
987
330
34
100
AcDbDictionary
280
     1
281
     1
  3
ACAD_XREC_ROUNDTRIP
360
988
  0
DICTIONARY
  5
9A1
330
41
100
AcDbDictionary
280
     1
281
     1
  3
ACAD_XREC_ROUNDTRIP
360
9A2
  0
DICTIONARY
  5
98F
330
38
100
AcDbDictionary
280
     1
281
     1
  3
ACAD_XREC_ROUNDTRIP
360
990
  0
DICTIONARY
  5
973
330
2A
100
AcDbDictionary
280
     1
281
     1
  3
ACAD_XREC_ROUNDTRIP
360
974
  0
DICTIONARY
  5
975
330
2B
100
AcDbDictionary
280
     1
281
     1
  3
ACAD_XREC_ROUNDTRIP
360
976
  0
DICTIONARY
  5
977
330
2C
100
AcDbDictionary
280
     1
281
     1
  3
ACAD_XREC_ROUNDTRIP
360
978
  0
DICTIONARY
  5
979
330
2D
100
AcDbDictionary
280
     1
281
     1
  3
ACAD_XREC_ROUNDTRIP
360
97A
  0
DICTIONARY
  5
981
330
31
100
AcDbDictionary
280
     1
281
     1
  3
ACAD_XREC_ROUNDTRIP
360
982
  0
DICTIONARY
  5
99D
330
3F
100
AcDbDictionary
280
     1
281
     1
  3
ACAD_XREC_ROUNDTRIP
360
99E
  0
DICTIONARY
  5
98D
330
37
100
AcDbDictionary
280
     1
281
     1
  3
ACAD_XREC_ROUNDTRIP
360
98E
  0
DICTIONARY
  5
99F
330
40
100
AcDbDictionary
280
     1
281
     1
  3
ACAD_XREC_ROUNDTRIP
360
9A0
  0
DICTIONARY
  5
985
330
33
100
AcDbDictionary
280
     1
281
     1
  3
ACAD_XREC_ROUNDTRIP
360
986
  0
DICTIONARY
  5
99B
330
3E
100
AcDbDictionary
280
     1
281
     1
  3
ACAD_XREC_ROUNDTRIP
360
99C
  0
DICTIONARY
  5
999
330
3D
100
AcDbDictionary
280
     1
281
     1
  3
ACAD_XREC_ROUNDTRIP
360
99A
  0
DICTIONARY
  5
993
330
3A
100
AcDbDictionary
280
     1
281
     1
  3
ACAD_XREC_ROUNDTRIP
360
994
  0
DICTIONARY
  5
995
330
3B
100
AcDbDictionary
280
     1
281
     1
  3
ACAD_XREC_ROUNDTRIP
360
996
  0
DICTIONARY
  5
98B
330
36
100
AcDbDictionary
280
     1
281
     1
  3
ACAD_XREC_ROUNDTRIP
360
98C
  0
DICTIONARY
  5
97F
330
30
100
AcDbDictionary
280
     1
281
     1
  3
ACAD_XREC_ROUNDTRIP
360
980
  0
DICTIONARY
  5
997
330
3C
100
AcDbDictionary
280
     1
281
     1
  3
ACAD_XREC_ROUNDTRIP
360
998
  0
XRECORD
  5
9A7
102
{ACAD_REACTORS
330
9A6
102
}
330
9A6
100
AcDbXrecord
280
     1
102
SHADEPLOT
 70
     0
102
SHADEPLOTRESLEVEL
 70
     2
102
SHADEPLOTCUSTOMDPI
 70
   300
  0
XRECORD
  5
9A5
102
{ACAD_REACTORS
330
9A4
102
}
330
9A4
100
AcDbXrecord
280
     1
102
SHADEPLOT
 70
     0
102
SHADEPLOTRESLEVEL
 70
     2
102
SHADEPLOTCUSTOMDPI
 70
   300
  0
XRECORD
  5
9A9
102
{ACAD_REACTORS
330
9A8
102
}
330
9A8
100
AcDbXrecord
280
     1
102
SHADEPLOT
 70
     0
102
SHADEPLOTRESLEVEL
 70
     2
102
SHADEPLOTCUSTOMDPI
 70
   300
  0
XRECORD
  5
971
102
{ACAD_REACTORS
330
1A
102
}
330
1A
100
AcDbXrecord
280
     1
102
MATERIAL
148
0.0
149
0.0
149
0.0
 93
        0
 94
      127
282
     0
 72
     0
 77
     0
171
     0
175
     0
179
     0
273
     0
  0
XRECORD
  5
1C
102
{ACAD_REACTORS
330
1A
102
}
330
1A
100
AcDbXrecord
280
     1
270
     1
271
     1
  0
XRECORD
  5
1B
102
{ACAD_REACTORS
330
1A
102
}
330
1A
100
AcDbXrecord
280
     1
270
     1
271
     1
  0
XRECORD
  5
1F
102
{ACAD_REACTORS
330
1A
102
}
330
1A
100
AcDbXrecord
280
     1
270
     1
271
     1
  0
XRECORD
  5
1E
102
{ACAD_REACTORS
330
1A
102
}
330
1A
100
AcDbXrecord
280
     1
270
     1
271
     1
  0
XRECORD
  5
20
102
{ACAD_REACTORS
330
1A
102
}
330
1A
100
AcDbXrecord
280
     1
270
     1
271
     1
  0
XRECORD
  5
1D
102
{ACAD_REACTORS
330
1A
102
}
330
1A
100
AcDbXrecord
280
     1
270
     1
271
     1
  0
XRECORD
  5
970
102
{ACAD_REACTORS
330
12
102
}
330
12
100
AcDbXrecord
280
     1
102
MATERIAL
148
0.0
149
0.0
149
0.0
 93
        0
 94
      127
282
     0
 72
     0
 77
     0
171
     0
175
     0
179
     0
273
     0
  0
XRECORD
  5
14
102
{ACAD_REACTORS
330
12
102
}
330
12
100
AcDbXrecord
280
     1
270
     1
271
     1
  0
XRECORD
  5
13
102
{ACAD_REACTORS
330
12
102
}
330
12
100
AcDbXrecord
280
     1
270
     1
271
     1
  0
XRECORD
  5
17
102
{ACAD_REACTORS
330
12
102
}
330
12
100
AcDbXrecord
280
     1
270
     1
271
     1
  0
XRECORD
  5
16
102
{ACAD_REACTORS
330
12
102
}
330
12
100
AcDbXrecord
280
     1
270
     1
271
     1
  0
XRECORD
  5
18
102
{ACAD_REACTORS
330
12
102
}
330
12
100
AcDbXrecord
280
     1
270
     1
271
     1
  0
XRECORD
  5
15
102
{ACAD_REACTORS
330
12
102
}
330
12
100
AcDbXrecord
280
     1
270
     1
271
     1
  0
XRECORD
  5
972
102
{ACAD_REACTORS
330
22
102
}
330
22
100
AcDbXrecord
280
     1
102
MATERIAL
148
0.0
149
0.0
149
0.0
 93
        0
 94
      127
282
     0
 72
     0
 77
     0
171
     0
175
     0
179
     0
273
     0
  0
XRECORD
  5
24
102
{ACAD_REACTORS
330
22
102
}
330
22
100
AcDbXrecord
280
     1
270
     1
271
     1
  0
XRECORD
  5
23
102
{ACAD_REACTORS
330
22
102
}
330
22
100
AcDbXrecord
280
     1
270
     1
271
     1
  0
XRECORD
  5
27
102
{ACAD_REACTORS
330
22
102
}
330
22
100
AcDbXrecord
280
     1
270
     1
271
     1
  0
XRECORD
  5
26
102
{ACAD_REACTORS
330
22
102
}
330
22
100
AcDbXrecord
280
     1
270
     1
271
     1
  0
XRECORD
  5
28
102
{ACAD_REACTORS
330
22
102
}
330
22
100
AcDbXrecord
280
     1
270
     1
271
     1
  0
XRECORD
  5
25
102
{ACAD_REACTORS
330
22
102
}
330
22
100
AcDbXrecord
280
     1
270
     1
271
     1
  0
XRECORD
  5
967
102
{ACAD_REACTORS
330
966
102
}
330
966
100
AcDbXrecord
280
     1
102
ACAD_ROUNDTRIP_2012_MLEADER_STYLE
298
     1
  0
CELLSTYLEMAP
  5
965
102
{ACAD_REACTORS
330
82A
102
}
330
82A
100
AcDbCellStyleMap
 90
        3
300
CELLSTYLE
  1
TABLEFORMAT_BEGIN
 90
        5
170
     1
 91
        0
 92
    32768
 62
   257
 93
        1
300
CONTENTFORMAT
  1
CONTENTFORMAT_BEGIN
 90
        0
 91
        0
 92
      512
 93
        0
300

 40
0.0
140
1.0
 94
        5
 62
     0
340
55
144
6.0
309
CONTENTFORMAT_END
171
     1
301
MARGIN
  1
CELLMARGIN_BEGIN
 40
1.5
 40
1.5
 40
1.5
 40
1.5
 40
4.5
 40
4.5
309
CELLMARGIN_END
 94
        6
 95
        1
302
GRIDFORMAT
  1
GRIDFORMAT_BEGIN
 90
        0
 91
        1
 62
     0
 92
       -2
340
0
 93
        0
 40
1.125
309
GRIDFORMAT_END
 95
        2
302
GRIDFORMAT
  1
GRIDFORMAT_BEGIN
 90
        0
 91
        1
 62
     0
 92
       -2
340
0
 93
        0
 40
1.125
309
GRIDFORMAT_END
 95
        4
302
GRIDFORMAT
  1
GRIDFORMAT_BEGIN
 90
        0
 91
        1
 62
     0
 92
       -2
340
0
 93
        0
 40
1.125
309
GRIDFORMAT_END
 95
        8
302
GRIDFORMAT
  1
GRIDFORMAT_BEGIN
 90
        0
 91
        1
 62
     0
 92
       -2
340
0
 93
        0
 40
1.125
309
GRIDFORMAT_END
 95
       16
302
GRIDFORMAT
  1
GRIDFORMAT_BEGIN
 90
        0
 91
        1
 62
     0
 92
       -2
340
0
 93
        0
 40
1.125
309
GRIDFORMAT_END
 95
       32
302
GRIDFORMAT
  1
GRIDFORMAT_BEGIN
 90
        0
 91
        1
 62
     0
 92
       -2
340
0
 93
        0
 40
1.125
309
GRIDFORMAT_END
309
TABLEFORMAT_END
  1
CELLSTYLE_BEGIN
 90
        1
 91
        1
300
_TITLE
309
CELLSTYLE_END
300
CELLSTYLE
  1
TABLEFORMAT_BEGIN
 90
        5
170
     1
 91
        0
 92
        0
 62
   257
 93
        1
300
CONTENTFORMAT
  1
CONTENTFORMAT_BEGIN
 90
        0
 91
        0
 92
      512
 93
        0
300

 40
0.0
140
1.0
 94
        5
 62
     0
340
55
144
4.5
309
CONTENTFORMAT_END
171
     1
301
MARGIN
  1
CELLMARGIN_BEGIN
 40
1.5
 40
1.5
 40
1.5
 40
1.5
 40
4.5
 40
4.5
309
CELLMARGIN_END
 94
        6
 95
        1
302
GRIDFORMAT
  1
GRIDFORMAT_BEGIN
 90
        0
 91
        1
 62
     0
 92
       -2
340
0
 93
        0
 40
1.125
309
GRIDFORMAT_END
 95
        2
302
GRIDFORMAT
  1
GRIDFORMAT_BEGIN
 90
        0
 91
        1
 62
     0
 92
       -2
340
0
 93
        0
 40
1.125
309
GRIDFORMAT_END
 95
        4
302
GRIDFORMAT
  1
GRIDFORMAT_BEGIN
 90
        0
 91
        1
 62
     0
 92
       -2
340
0
 93
        0
 40
1.125
309
GRIDFORMAT_END
 95
        8
302
GRIDFORMAT
  1
GRIDFORMAT_BEGIN
 90
        0
 91
        1
 62
     0
 92
       -2
340
0
 93
        0
 40
1.125
309
GRIDFORMAT_END
 95
       16
302
GRIDFORMAT
  1
GRIDFORMAT_BEGIN
 90
        0
 91
        1
 62
     0
 92
       -2
340
0
 93
        0
 40
1.125
309
GRIDFORMAT_END
 95
       32
302
GRIDFORMAT
  1
GRIDFORMAT_BEGIN
 90
        0
 91
        1
 62
     0
 92
       -2
340
0
 93
        0
 40
1.125
309
GRIDFORMAT_END
309
TABLEFORMAT_END
  1
CELLSTYLE_BEGIN
 90
        2
 91
        1
300
_HEADER
309
CELLSTYLE_END
300
CELLSTYLE
  1
TABLEFORMAT_BEGIN
 90
        5
170
     1
 91
        0
 92
        0
 62
   257
 93
        1
300
CONTENTFORMAT
  1
CONTENTFORMAT_BEGIN
 90
        0
 91
        0
 92
      512
 93
        0
300

 40
0.0
140
1.0
 94
        2
 62
     0
340
55
144
4.5
309
CONTENTFORMAT_END
171
     1
301
MARGIN
  1
CELLMARGIN_BEGIN
 40
1.5
 40
1.5
 40
1.5
 40
1.5
 40
4.5
 40
4.5
309
CELLMARGIN_END
 94
        6
 95
        1
302
GRIDFORMAT
  1
GRIDFORMAT_BEGIN
 90
        0
 91
        1
 62
     0
 92
       -2
340
0
 93
        0
 40
1.125
309
GRIDFORMAT_END
 95
        2
302
GRIDFORMAT
  1
GRIDFORMAT_BEGIN
 90
        0
 91
        1
 62
     0
 92
       -2
340
0
 93
        0
 40
1.125
309
GRIDFORMAT_END
 95
        4
302
GRIDFORMAT
  1
GRIDFORMAT_BEGIN
 90
        0
 91
        1
 62
     0
 92
       -2
340
0
 93
        0
 40
1.125
309
GRIDFORMAT_END
 95
        8
302
GRIDFORMAT
  1
GRIDFORMAT_BEGIN
 90
        0
 91
        1
 62
     0
 92
       -2
340
0
 93
        0
 40
1.125
309
GRIDFORMAT_END
 95
       16
302
GRIDFORMAT
  1
GRIDFORMAT_BEGIN
 90
        0
 91
        1
 62
     0
 92
       -2
340
0
 93
        0
 40
1.125
309
GRIDFORMAT_END
 95
       32
302
GRIDFORMAT
  1
GRIDFORMAT_BEGIN
 90
        0
 91
        1
 62
     0
 92
       -2
340
0
 93
        0
 40
1.125
309
GRIDFORMAT_END
309
TABLEFORMAT_END
  1
CELLSTYLE_BEGIN
 90
        3
 91
        2
300
_DATA
309
CELLSTYLE_END
  0
XRECORD
  5
9A3
102
{ACAD_REACTORS
330
82A
102
}
330
82A
100
AcDbXrecord
280
     1
102
ACAD_ROUNDTRIP_PRE2007_TABLESTYLE
 90
      512
 91
        0
  1

 92
      512
 93
        0
  2

 94
      512
 95
        0
  3

  0
XRECORD
  5
97E
102
{ACAD_REACTORS
330
97D
102
}
330
97D
100
AcDbXrecord
280
     1
102
RTVSPropertyOp0
 70
     1
102
RTVSPropertyOp1
 70
     1
102
RTVSPropertyOp2
 70
     1
102
RTVSPropertyOp3
 70
     1
102
RTVSPropertyOp4
 70
     1
102
RTVSPropertyOp5
 70
     1
102
RTVSPropertyOp6
 70
     1
102
RTVSPropertyOp7
 70
     1
102
RTVSPropertyOp8
 70
     1
102
RTVSPropertyOp9
 70
     1
102
RTVSPropertyOp10
 70
     1
102
RTVSPropertyOp11
 70
     1
102
RTVSPropertyOp12
 70
     1
102
RTVSPropertyOp13
 70
     1
102
RTVSPropertyOp14
 70
     1
102
RTVSPropertyOp15
 70
     1
102
RTVSPropertyOp16
 70
     1
102
RTVSPropertyOp17
 70
     1
102
RTVSPropertyOp18
 70
     1
102
RTVSPropertyOp19
 70
     1
102
RTVSPropertyOp20
 70
     1
102
RTVSPropertyOp21
 70
     1
102
RTVSPropertyOp22
 70
     1
102
RTVSPropertyOp23
 70
     1
102
RTVSPropertyOp24
 70
     1
102
RTVSPropertyOp25
 70
     1
102
RTVSPropertyOp26
 70
     1
102
RTVSPropertyOp27
 70
     1
102
RTVSPropertyOp28
 70
     1
102
RTVSPropertyOp29
 70
     1
102
RTVSPropertyOp30
 70
     1
102
RTVSPropertyOp31
 70
     1
102
RTVSPropertyOp32
 70
     1
  0
XRECORD
  5
9AB
102
{ACAD_REACTORS
330
9AA
102
}
330
9AA
100
AcDbXrecord
280
     1
102
RTVSPropertyOp0
 70
     1
102
RTVSPropertyOp1
 70
     1
102
RTVSPropertyOp2
 70
     1
102
RTVSPropertyOp3
 70
     1
102
RTVSPropertyOp4
 70
     1
102
RTVSPropertyOp5
 70
     1
102
RTVSPropertyOp6
 70
     1
102
RTVSPropertyOp7
 70
     1
102
RTVSPropertyOp8
 70
     1
102
RTVSPropertyOp9
 70
     1
102
RTVSPropertyOp10
 70
     1
102
RTVSPropertyOp11
 70
     1
102
RTVSPropertyOp12
 70
     1
102
RTVSPropertyOp13
 70
     1
102
RTVSPropertyOp14
 70
     1
102
RTVSPropertyOp15
 70
     1
102
RTVSPropertyOp16
 70
     1
102
RTVSPropertyOp17
 70
     1
102
RTVSPropertyOp18
 70
     1
102
RTVSPropertyOp19
 70
     1
102
RTVSPropertyOp20
 70
     1
102
RTVSPropertyOp21
 70
     1
102
RTVSPropertyOp22
 70
     1
102
RTVSPropertyOp23
 70
     1
102
RTVSPropertyOp24
 70
     1
102
RTVSPropertyOp25
 70
     1
102
RTVSPropertyOp26
 70
     1
102
RTVSPropertyOp27
 70
     1
102
RTVSPropertyOp28
 70
     1
102
RTVSPropertyOp29
 70
     1
102
RTVSPropertyOp30
 70
     1
102
RTVSPropertyOp31
 70
     1
102
RTVSPropertyOp32
 70
     1
  0
XRECORD
  5
97C
102
{ACAD_REACTORS
330
97B
102
}
330
97B
100
AcDbXrecord
280
     1
102
RTVSPropertyOp0
 70
     1
102
RTVSPropertyOp1
 70
     1
102
RTVSPropertyOp2
 70
     1
102
RTVSPropertyOp3
 70
     1
102
RTVSPropertyOp4
 70
     1
102
RTVSPropertyOp5
 70
     1
102
RTVSPropertyOp6
 70
     1
102
RTVSPropertyOp7
 70
     1
102
RTVSPropertyOp8
 70
     1
102
RTVSPropertyOp9
 70
     1
102
RTVSPropertyOp10
 70
     1
102
RTVSPropertyOp11
 70
     1
102
RTVSPropertyOp12
 70
     1
102
RTVSPropertyOp13
 70
     1
102
RTVSPropertyOp14
 70
     1
102
RTVSPropertyOp15
 70
     1
102
RTVSPropertyOp16
 70
     1
102
RTVSPropertyOp17
 70
     1
102
RTVSPropertyOp18
 70
     1
102
RTVSPropertyOp19
 70
     1
102
RTVSPropertyOp20
 70
     1
102
RTVSPropertyOp21
 70
     1
102
RTVSPropertyOp22
 70
     1
102
RTVSPropertyOp23
 70
     1
102
RTVSPropertyOp24
 70
     1
102
RTVSPropertyOp25
 70
     1
102
RTVSPropertyOp26
 70
     1
102
RTVSPropertyOp27
 70
     1
102
RTVSPropertyOp28
 70
     1
102
RTVSPropertyOp29
 70
     1
102
RTVSPropertyOp30
 70
     1
102
RTVSPropertyOp31
 70
     1
102
RTVSPropertyOp32
 70
     1
  0
XRECORD
  5
98A
102
{ACAD_REACTORS
330
989
102
}
330
989
100
AcDbXrecord
280
     1
102
RTVSPropertyOp0
 70
     1
102
RTVSPropertyOp1
 70
     1
102
RTVSPropertyOp2
 70
     1
102
RTVSPropertyOp3
 70
     1
102
RTVSPropertyOp4
 70
     1
102
RTVSPropertyOp5
 70
     1
102
RTVSPropertyOp6
 70
     1
102
RTVSPropertyOp7
 70
     1
102
RTVSPropertyOp8
 70
     1
102
RTVSPropertyOp9
 70
     1
102
RTVSPropertyOp10
 70
     1
102
RTVSPropertyOp11
 70
     1
102
RTVSPropertyOp12
 70
     1
102
RTVSPropertyOp13
 70
     1
102
RTVSPropertyOp14
 70
     1
102
RTVSPropertyOp15
 70
     1
102
RTVSPropertyOp16
 70
     1
102
RTVSPropertyOp17
 70
     1
102
RTVSPropertyOp18
 70
     1
102
RTVSPropertyOp19
 70
     1
102
RTVSPropertyOp20
 70
     1
102
RTVSPropertyOp21
 70
     1
102
RTVSPropertyOp22
 70
     1
102
RTVSPropertyOp23
 70
     1
102
RTVSPropertyOp24
 70
     1
102
RTVSPropertyOp25
 70
     1
102
RTVSPropertyOp26
 70
     1
102
RTVSPropertyOp27
 70
     1
102
RTVSPropertyOp28
 70
     1
102
RTVSPropertyOp29
 70
     1
102
RTVSPropertyOp30
 70
     1
102
RTVSPropertyOp31
 70
     1
102
RTVSPropertyOp32
 70
     1
  0
XRECORD
  5
992
102
{ACAD_REACTORS
330
991
102
}
330
991
100
AcDbXrecord
280
     1
102
RTVSPropertyOp0
 70
     1
102
RTVSPropertyOp1
 70
     1
102
RTVSPropertyOp2
 70
     1
102
RTVSPropertyOp3
 70
     1
102
RTVSPropertyOp4
 70
     1
102
RTVSPropertyOp5
 70
     1
102
RTVSPropertyOp6
 70
     1
102
RTVSPropertyOp7
 70
     1
102
RTVSPropertyOp8
 70
     1
102
RTVSPropertyOp9
 70
     1
102
RTVSPropertyOp10
 70
     1
102
RTVSPropertyOp11
 70
     1
102
RTVSPropertyOp12
 70
     1
102
RTVSPropertyOp13
 70
     1
102
RTVSPropertyOp14
 70
     1
102
RTVSPropertyOp15
 70
     1
102
RTVSPropertyOp16
 70
     1
102
RTVSPropertyOp17
 70
     1
102
RTVSPropertyOp18
 70
     1
102
RTVSPropertyOp19
 70
     1
102
RTVSPropertyOp20
 70
     1
102
RTVSPropertyOp21
 70
     1
102
RTVSPropertyOp22
 70
     1
102
RTVSPropertyOp23
 70
     1
102
RTVSPropertyOp24
 70
     1
102
RTVSPropertyOp25
 70
     1
102
RTVSPropertyOp26
 70
     1
102
RTVSPropertyOp27
 70
     1
102
RTVSPropertyOp28
 70
     1
102
RTVSPropertyOp29
 70
     1
102
RTVSPropertyOp30
 70
     1
102
RTVSPropertyOp31
 70
     1
102
RTVSPropertyOp32
 70
     1
  0
XRECORD
  5
984
102
{ACAD_REACTORS
330
983
102
}
330
983
100
AcDbXrecord
280
     1
102
RTVSPropertyOp0
 70
     1
102
RTVSPropertyOp1
 70
     1
102
RTVSPropertyOp2
 70
     1
102
RTVSPropertyOp3
 70
     1
102
RTVSPropertyOp4
 70
     1
102
RTVSPropertyOp5
 70
     1
102
RTVSPropertyOp6
 70
     1
102
RTVSPropertyOp7
 70
     1
102
RTVSPropertyOp8
 70
     1
102
RTVSPropertyOp9
 70
     1
102
RTVSPropertyOp10
 70
     1
102
RTVSPropertyOp11
 70
     1
102
RTVSPropertyOp12
 70
     1
102
RTVSPropertyOp13
 70
     1
102
RTVSPropertyOp14
 70
     1
102
RTVSPropertyOp15
 70
     1
102
RTVSPropertyOp16
 70
     1
102
RTVSPropertyOp17
 70
     1
102
RTVSPropertyOp18
 70
     1
102
RTVSPropertyOp19
 70
     1
102
RTVSPropertyOp20
 70
     1
102
RTVSPropertyOp21
 70
     1
102
RTVSPropertyOp22
 70
     1
102
RTVSPropertyOp23
 70
     1
102
RTVSPropertyOp24
 70
     1
102
RTVSPropertyOp25
 70
     1
102
RTVSPropertyOp26
 70
     1
102
RTVSPropertyOp27
 70
     1
102
RTVSPropertyOp28
 70
     1
102
RTVSPropertyOp29
 70
     1
102
RTVSPropertyOp30
 70
     1
102
RTVSPropertyOp31
 70
     1
102
RTVSPropertyOp32
 70
     1
  0
XRECORD
  5
988
102
{ACAD_REACTORS
330
987
102
}
330
987
100
AcDbXrecord
280
     1
102
RTVSPropertyOp0
 70
     1
102
RTVSPropertyOp1
 70
     1
102
RTVSPropertyOp2
 70
     1
102
RTVSPropertyOp3
 70
     1
102
RTVSPropertyOp4
 70
     1
102
RTVSPropertyOp5
 70
     1
102
RTVSPropertyOp6
 70
     1
102
RTVSPropertyOp7
 70
     1
102
RTVSPropertyOp8
 70
     1
102
RTVSPropertyOp9
 70
     1
102
RTVSPropertyOp10
 70
     1
102
RTVSPropertyOp11
 70
     1
102
RTVSPropertyOp12
 70
     1
102
RTVSPropertyOp13
 70
     1
102
RTVSPropertyOp14
 70
     1
102
RTVSPropertyOp15
 70
     1
102
RTVSPropertyOp16
 70
     1
102
RTVSPropertyOp17
 70
     1
102
RTVSPropertyOp18
 70
     1
102
RTVSPropertyOp19
 70
     1
102
RTVSPropertyOp20
 70
     1
102
RTVSPropertyOp21
 70
     1
102
RTVSPropertyOp22
 70
     1
102
RTVSPropertyOp23
 70
     1
102
RTVSPropertyOp24
 70
     1
102
RTVSPropertyOp25
 70
     1
102
RTVSPropertyOp26
 70
     1
102
RTVSPropertyOp27
 70
     1
102
RTVSPropertyOp28
 70
     1
102
RTVSPropertyOp29
 70
     1
102
RTVSPropertyOp30
 70
     1
102
RTVSPropertyOp31
 70
     1
102
RTVSPropertyOp32
 70
     1
  0
XRECORD
  5
9A2
102
{ACAD_REACTORS
330
9A1
102
}
330
9A1
100
AcDbXrecord
280
     1
102
RTVSPropertyOp0
 70
     0
102
RTVSPropertyOp1
 70
     0
102
RTVSPropertyOp2
 70
     0
102
RTVSPropertyOp3
 70
     0
102
RTVSPropertyOp4
 70
     0
102
RTVSPropertyOp5
 70
     0
102
RTVSPropertyOp6
 70
     0
102
RTVSPropertyOp7
 70
     0
102
RTVSPropertyOp8
 70
     0
102
RTVSPropertyOp9
 70
     0
102
RTVSPropertyOp10
 70
     0
102
RTVSPropertyOp11
 70
     0
102
RTVSPropertyOp12
 70
     0
102
RTVSPropertyOp13
 70
     0
102
RTVSPropertyOp14
 70
     2
102
RTVSPropertyOp15
 70
     0
102
RTVSPropertyOp16
 70
     0
102
RTVSPropertyOp17
 70
     0
102
RTVSPropertyOp18
 70
     0
102
RTVSPropertyOp19
 70
     0
102
RTVSPropertyOp20
 70
     0
102
RTVSPropertyOp21
 70
     0
102
RTVSPropertyOp22
 70
     0
102
RTVSPropertyOp23
 70
     0
102
RTVSPropertyOp24
 70
     0
102
RTVSPropertyOp25
 70
     0
102
RTVSPropertyOp26
 70
     0
102
RTVSPropertyOp27
 70
     0
102
RTVSPropertyOp28
 70
     0
102
RTVSPropertyOp29
 70
     0
102
RTVSPropertyOp30
 70
     0
102
RTVSPropertyOp31
 70
     0
102
RTVSPropertyOp32
 70
     0
  0
XRECORD
  5
990
102
{ACAD_REACTORS
330
98F
102
}
330
98F
100
AcDbXrecord
280
     1
102
RTVSPropertyOp0
 70
     1
102
RTVSPropertyOp1
 70
     1
102
RTVSPropertyOp2
 70
     1
102
RTVSPropertyOp3
 70
     1
102
RTVSPropertyOp4
 70
     1
102
RTVSPropertyOp5
 70
     1
102
RTVSPropertyOp6
 70
     1
102
RTVSPropertyOp7
 70
     1
102
RTVSPropertyOp8
 70
     1
102
RTVSPropertyOp9
 70
     1
102
RTVSPropertyOp10
 70
     1
102
RTVSPropertyOp11
 70
     1
102
RTVSPropertyOp12
 70
     1
102
RTVSPropertyOp13
 70
     1
102
RTVSPropertyOp14
 70
     1
102
RTVSPropertyOp15
 70
     1
102
RTVSPropertyOp16
 70
     1
102
RTVSPropertyOp17
 70
     1
102
RTVSPropertyOp18
 70
     1
102
RTVSPropertyOp19
 70
     1
102
RTVSPropertyOp20
 70
     1
102
RTVSPropertyOp21
 70
     1
102
RTVSPropertyOp22
 70
     1
102
RTVSPropertyOp23
 70
     1
102
RTVSPropertyOp24
 70
     1
102
RTVSPropertyOp25
 70
     1
102
RTVSPropertyOp26
 70
     1
102
RTVSPropertyOp27
 70
     1
102
RTVSPropertyOp28
 70
     1
102
RTVSPropertyOp29
 70
     1
102
RTVSPropertyOp30
 70
     1
102
RTVSPropertyOp31
 70
     1
102
RTVSPropertyOp32
 70
     1
  0
XRECORD
  5
974
102
{ACAD_REACTORS
330
973
102
}
330
973
100
AcDbXrecord
280
     1
102
RTVSPropertyOp0
 70
     1
102
RTVSPropertyOp1
 70
     1
102
RTVSPropertyOp2
 70
     1
102
RTVSPropertyOp3
 70
     1
102
RTVSPropertyOp4
 70
     1
102
RTVSPropertyOp5
 70
     1
102
RTVSPropertyOp6
 70
     1
102
RTVSPropertyOp7
 70
     1
102
RTVSPropertyOp8
 70
     1
102
RTVSPropertyOp9
 70
     1
102
RTVSPropertyOp10
 70
     1
102
RTVSPropertyOp11
 70
     1
102
RTVSPropertyOp12
 70
     1
102
RTVSPropertyOp13
 70
     1
102
RTVSPropertyOp14
 70
     1
102
RTVSPropertyOp15
 70
     1
102
RTVSPropertyOp16
 70
     1
102
RTVSPropertyOp17
 70
     1
102
RTVSPropertyOp18
 70
     1
102
RTVSPropertyOp19
 70
     1
102
RTVSPropertyOp20
 70
     1
102
RTVSPropertyOp21
 70
     1
102
RTVSPropertyOp22
 70
     1
102
RTVSPropertyOp23
 70
     1
102
RTVSPropertyOp24
 70
     1
102
RTVSPropertyOp25
 70
     1
102
RTVSPropertyOp26
 70
     1
102
RTVSPropertyOp27
 70
     1
102
RTVSPropertyOp28
 70
     1
102
RTVSPropertyOp29
 70
     1
102
RTVSPropertyOp30
 70
     1
102
RTVSPropertyOp31
 70
     1
102
RTVSPropertyOp32
 70
     1
  0
XRECORD
  5
976
102
{ACAD_REACTORS
330
975
102
}
330
975
100
AcDbXrecord
280
     1
102
RTVSPropertyOp0
 70
     1
102
RTVSPropertyOp1
 70
     1
102
RTVSPropertyOp2
 70
     1
102
RTVSPropertyOp3
 70
     1
102
RTVSPropertyOp4
 70
     1
102
RTVSPropertyOp5
 70
     1
102
RTVSPropertyOp6
 70
     1
102
RTVSPropertyOp7
 70
     1
102
RTVSPropertyOp8
 70
     1
102
RTVSPropertyOp9
 70
     1
102
RTVSPropertyOp10
 70
     1
102
RTVSPropertyOp11
 70
     1
102
RTVSPropertyOp12
 70
     1
102
RTVSPropertyOp13
 70
     1
102
RTVSPropertyOp14
 70
     1
102
RTVSPropertyOp15
 70
     1
102
RTVSPropertyOp16
 70
     1
102
RTVSPropertyOp17
 70
     1
102
RTVSPropertyOp18
 70
     1
102
RTVSPropertyOp19
 70
     1
102
RTVSPropertyOp20
 70
     1
102
RTVSPropertyOp21
 70
     1
102
RTVSPropertyOp22
 70
     1
102
RTVSPropertyOp23
 70
     1
102
RTVSPropertyOp24
 70
     1
102
RTVSPropertyOp25
 70
     1
102
RTVSPropertyOp26
 70
     1
102
RTVSPropertyOp27
 70
     1
102
RTVSPropertyOp28
 70
     1
102
RTVSPropertyOp29
 70
     1
102
RTVSPropertyOp30
 70
     1
102
RTVSPropertyOp31
 70
     1
102
RTVSPropertyOp32
 70
     1
  0
XRECORD
  5
978
102
{ACAD_REACTORS
330
977
102
}
330
977
100
AcDbXrecord
280
     1
102
RTVSPropertyOp0
 70
     1
102
RTVSPropertyOp1
 70
     1
102
RTVSPropertyOp2
 70
     1
102
RTVSPropertyOp3
 70
     1
102
RTVSPropertyOp4
 70
     1
102
RTVSPropertyOp5
 70
     1
102
RTVSPropertyOp6
 70
     1
102
RTVSPropertyOp7
 70
     1
102
RTVSPropertyOp8
 70
     1
102
RTVSPropertyOp9
 70
     1
102
RTVSPropertyOp10
 70
     1
102
RTVSPropertyOp11
 70
     1
102
RTVSPropertyOp12
 70
     1
102
RTVSPropertyOp13
 70
     1
102
RTVSPropertyOp14
 70
     1
102
RTVSPropertyOp15
 70
     1
102
RTVSPropertyOp16
 70
     1
102
RTVSPropertyOp17
 70
     1
102
RTVSPropertyOp18
 70
     1
102
RTVSPropertyOp19
 70
     1
102
RTVSPropertyOp20
 70
     1
102
RTVSPropertyOp21
 70
     1
102
RTVSPropertyOp22
 70
     1
102
RTVSPropertyOp23
 70
     1
102
RTVSPropertyOp24
 70
     1
102
RTVSPropertyOp25
 70
     1
102
RTVSPropertyOp26
 70
     1
102
RTVSPropertyOp27
 70
     1
102
RTVSPropertyOp28
 70
     1
102
RTVSPropertyOp29
 70
     1
102
RTVSPropertyOp30
 70
     1
102
RTVSPropertyOp31
 70
     1
102
RTVSPropertyOp32
 70
     1
  0
XRECORD
  5
97A
102
{ACAD_REACTORS
330
979
102
}
330
979
100
AcDbXrecord
280
     1
102
RTVSPropertyOp0
 70
     1
102
RTVSPropertyOp1
 70
     1
102
RTVSPropertyOp2
 70
     1
102
RTVSPropertyOp3
 70
     1
102
RTVSPropertyOp4
 70
     1
102
RTVSPropertyOp5
 70
     1
102
RTVSPropertyOp6
 70
     1
102
RTVSPropertyOp7
 70
     1
102
RTVSPropertyOp8
 70
     1
102
RTVSPropertyOp9
 70
     1
102
RTVSPropertyOp10
 70
     1
102
RTVSPropertyOp11
 70
     1
102
RTVSPropertyOp12
 70
     1
102
RTVSPropertyOp13
 70
     1
102
RTVSPropertyOp14
 70
     1
102
RTVSPropertyOp15
 70
     1
102
RTVSPropertyOp16
 70
     1
102
RTVSPropertyOp17
 70
     1
102
RTVSPropertyOp18
 70
     1
102
RTVSPropertyOp19
 70
     1
102
RTVSPropertyOp20
 70
     1
102
RTVSPropertyOp21
 70
     1
102
RTVSPropertyOp22
 70
     1
102
RTVSPropertyOp23
 70
     1
102
RTVSPropertyOp24
 70
     1
102
RTVSPropertyOp25
 70
     1
102
RTVSPropertyOp26
 70
     1
102
RTVSPropertyOp27
 70
     1
102
RTVSPropertyOp28
 70
     1
102
RTVSPropertyOp29
 70
     1
102
RTVSPropertyOp30
 70
     1
102
RTVSPropertyOp31
 70
     1
102
RTVSPropertyOp32
 70
     1
  0
XRECORD
  5
982
102
{ACAD_REACTORS
330
981
102
}
330
981
100
AcDbXrecord
280
     1
102
RTVSPropertyOp0
 70
     1
102
RTVSPropertyOp1
 70
     1
102
RTVSPropertyOp2
 70
     1
102
RTVSPropertyOp3
 70
     1
102
RTVSPropertyOp4
 70
     1
102
RTVSPropertyOp5
 70
     1
102
RTVSPropertyOp6
 70
     1
102
RTVSPropertyOp7
 70
     1
102
RTVSPropertyOp8
 70
     1
102
RTVSPropertyOp9
 70
     1
102
RTVSPropertyOp10
 70
     1
102
RTVSPropertyOp11
 70
     1
102
RTVSPropertyOp12
 70
     1
102
RTVSPropertyOp13
 70
     1
102
RTVSPropertyOp14
 70
     1
102
RTVSPropertyOp15
 70
     1
102
RTVSPropertyOp16
 70
     1
102
RTVSPropertyOp17
 70
     1
102
RTVSPropertyOp18
 70
     1
102
RTVSPropertyOp19
 70
     1
102
RTVSPropertyOp20
 70
     1
102
RTVSPropertyOp21
 70
     1
102
RTVSPropertyOp22
 70
     1
102
RTVSPropertyOp23
 70
     1
102
RTVSPropertyOp24
 70
     1
102
RTVSPropertyOp25
 70
     1
102
RTVSPropertyOp26
 70
     1
102
RTVSPropertyOp27
 70
     1
102
RTVSPropertyOp28
 70
     1
102
RTVSPropertyOp29
 70
     1
102
RTVSPropertyOp30
 70
     1
102
RTVSPropertyOp31
 70
     1
102
RTVSPropertyOp32
 70
     1
  0
XRECORD
  5
99E
102
{ACAD_REACTORS
330
99D
102
}
330
99D
100
AcDbXrecord
280
     1
102
RTVSPropertyOp0
 70
     0
102
RTVSPropertyOp1
 70
     0
102
RTVSPropertyOp2
 70
     0
102
RTVSPropertyOp3
 70
     0
102
RTVSPropertyOp4
 70
     0
102
RTVSPropertyOp5
 70
     0
102
RTVSPropertyOp6
 70
     0
102
RTVSPropertyOp7
 70
     0
102
RTVSPropertyOp8
 70
     0
102
RTVSPropertyOp9
 70
     0
102
RTVSPropertyOp10
 70
     0
102
RTVSPropertyOp11
 70
     0
102
RTVSPropertyOp12
 70
     0
102
RTVSPropertyOp13
 70
     0
102
RTVSPropertyOp14
 70
     2
102
RTVSPropertyOp15
 70
     0
102
RTVSPropertyOp16
 70
     0
102
RTVSPropertyOp17
 70
     0
102
RTVSPropertyOp18
 70
     0
102
RTVSPropertyOp19
 70
     0
102
RTVSPropertyOp20
 70
     0
102
RTVSPropertyOp21
 70
     0
102
RTVSPropertyOp22
 70
     0
102
RTVSPropertyOp23
 70
     0
102
RTVSPropertyOp24
 70
     0
102
RTVSPropertyOp25
 70
     0
102
RTVSPropertyOp26
 70
     0
102
RTVSPropertyOp27
 70
     0
102
RTVSPropertyOp28
 70
     0
102
RTVSPropertyOp29
 70
     0
102
RTVSPropertyOp30
 70
     0
102
RTVSPropertyOp31
 70
     0
102
RTVSPropertyOp32
 70
     0
  0
XRECORD
  5
98E
102
{ACAD_REACTORS
330
98D
102
}
330
98D
100
AcDbXrecord
280
     1
102
RTVSPropertyOp0
 70
     1
102
RTVSPropertyOp1
 70
     1
102
RTVSPropertyOp2
 70
     1
102
RTVSPropertyOp3
 70
     1
102
RTVSPropertyOp4
 70
     1
102
RTVSPropertyOp5
 70
     1
102
RTVSPropertyOp6
 70
     1
102
RTVSPropertyOp7
 70
     1
102
RTVSPropertyOp8
 70
     1
102
RTVSPropertyOp9
 70
     1
102
RTVSPropertyOp10
 70
     1
102
RTVSPropertyOp11
 70
     1
102
RTVSPropertyOp12
 70
     1
102
RTVSPropertyOp13
 70
     1
102
RTVSPropertyOp14
 70
     1
102
RTVSPropertyOp15
 70
     1
102
RTVSPropertyOp16
 70
     1
102
RTVSPropertyOp17
 70
     1
102
RTVSPropertyOp18
 70
     1
102
RTVSPropertyOp19
 70
     1
102
RTVSPropertyOp20
 70
     1
102
RTVSPropertyOp21
 70
     1
102
RTVSPropertyOp22
 70
     1
102
RTVSPropertyOp23
 70
     1
102
RTVSPropertyOp24
 70
     1
102
RTVSPropertyOp25
 70
     1
102
RTVSPropertyOp26
 70
     1
102
RTVSPropertyOp27
 70
     1
102
RTVSPropertyOp28
 70
     1
102
RTVSPropertyOp29
 70
     1
102
RTVSPropertyOp30
 70
     1
102
RTVSPropertyOp31
 70
     1
102
RTVSPropertyOp32
 70
     1
  0
XRECORD
  5
9A0
102
{ACAD_REACTORS
330
99F
102
}
330
99F
100
AcDbXrecord
280
     1
102
RTVSPropertyOp0
 70
     0
102
RTVSPropertyOp1
 70
     0
102
RTVSPropertyOp2
 70
     0
102
RTVSPropertyOp3
 70
     0
102
RTVSPropertyOp4
 70
     0
102
RTVSPropertyOp5
 70
     0
102
RTVSPropertyOp6
 70
     0
102
RTVSPropertyOp7
 70
     0
102
RTVSPropertyOp8
 70
     0
102
RTVSPropertyOp9
 70
     0
102
RTVSPropertyOp10
 70
     0
102
RTVSPropertyOp11
 70
     0
102
RTVSPropertyOp12
 70
     0
102
RTVSPropertyOp13
 70
     0
102
RTVSPropertyOp14
 70
     2
102
RTVSPropertyOp15
 70
     0
102
RTVSPropertyOp16
 70
     0
102
RTVSPropertyOp17
 70
     0
102
RTVSPropertyOp18
 70
     0
102
RTVSPropertyOp19
 70
     0
102
RTVSPropertyOp20
 70
     0
102
RTVSPropertyOp21
 70
     0
102
RTVSPropertyOp22
 70
     0
102
RTVSPropertyOp23
 70
     0
102
RTVSPropertyOp24
 70
     0
102
RTVSPropertyOp25
 70
     0
102
RTVSPropertyOp26
 70
     0
102
RTVSPropertyOp27
 70
     0
102
RTVSPropertyOp28
 70
     0
102
RTVSPropertyOp29
 70
     0
102
RTVSPropertyOp30
 70
     0
102
RTVSPropertyOp31
 70
     0
102
RTVSPropertyOp32
 70
     0
  0
XRECORD
  5
986
102
{ACAD_REACTORS
330
985
102
}
330
985
100
AcDbXrecord
280
     1
102
RTVSPropertyOp0
 70
     1
102
RTVSPropertyOp1
 70
     1
102
RTVSPropertyOp2
 70
     1
102
RTVSPropertyOp3
 70
     1
102
RTVSPropertyOp4
 70
     1
102
RTVSPropertyOp5
 70
     1
102
RTVSPropertyOp6
 70
     1
102
RTVSPropertyOp7
 70
     1
102
RTVSPropertyOp8
 70
     1
102
RTVSPropertyOp9
 70
     1
102
RTVSPropertyOp10
 70
     1
102
RTVSPropertyOp11
 70
     1
102
RTVSPropertyOp12
 70
     1
102
RTVSPropertyOp13
 70
     1
102
RTVSPropertyOp14
 70
     1
102
RTVSPropertyOp15
 70
     1
102
RTVSPropertyOp16
 70
     1
102
RTVSPropertyOp17
 70
     1
102
RTVSPropertyOp18
 70
     1
102
RTVSPropertyOp19
 70
     1
102
RTVSPropertyOp20
 70
     1
102
RTVSPropertyOp21
 70
     1
102
RTVSPropertyOp22
 70
     1
102
RTVSPropertyOp23
 70
     1
102
RTVSPropertyOp24
 70
     1
102
RTVSPropertyOp25
 70
     1
102
RTVSPropertyOp26
 70
     1
102
RTVSPropertyOp27
 70
     1
102
RTVSPropertyOp28
 70
     1
102
RTVSPropertyOp29
 70
     1
102
RTVSPropertyOp30
 70
     1
102
RTVSPropertyOp31
 70
     1
102
RTVSPropertyOp32
 70
     1
  0
XRECORD
  5
99C
102
{ACAD_REACTORS
330
99B
102
}
330
99B
100
AcDbXrecord
280
     1
102
RTVSPropertyOp0
 70
     1
102
RTVSPropertyOp1
 70
     1
102
RTVSPropertyOp2
 70
     1
102
RTVSPropertyOp3
 70
     1
102
RTVSPropertyOp4
 70
     1
102
RTVSPropertyOp5
 70
     1
102
RTVSPropertyOp6
 70
     1
102
RTVSPropertyOp7
 70
     1
102
RTVSPropertyOp8
 70
     1
102
RTVSPropertyOp9
 70
     1
102
RTVSPropertyOp10
 70
     1
102
RTVSPropertyOp11
 70
     1
102
RTVSPropertyOp12
 70
     1
102
RTVSPropertyOp13
 70
     1
102
RTVSPropertyOp14
 70
     1
102
RTVSPropertyOp15
 70
     1
102
RTVSPropertyOp16
 70
     1
102
RTVSPropertyOp17
 70
     1
102
RTVSPropertyOp18
 70
     1
102
RTVSPropertyOp19
 70
     1
102
RTVSPropertyOp20
 70
     1
102
RTVSPropertyOp21
 70
     1
102
RTVSPropertyOp22
 70
     1
102
RTVSPropertyOp23
 70
     1
102
RTVSPropertyOp24
 70
     1
102
RTVSPropertyOp25
 70
     1
102
RTVSPropertyOp26
 70
     1
102
RTVSPropertyOp27
 70
     1
102
RTVSPropertyOp28
 70
     1
102
RTVSPropertyOp29
 70
     1
102
RTVSPropertyOp30
 70
     1
102
RTVSPropertyOp31
 70
     1
102
RTVSPropertyOp32
 70
     1
  0
XRECORD
  5
99A
102
{ACAD_REACTORS
330
999
102
}
330
999
100
AcDbXrecord
280
     1
102
RTVSPropertyOp0
 70
     1
102
RTVSPropertyOp1
 70
     1
102
RTVSPropertyOp2
 70
     1
102
RTVSPropertyOp3
 70
     1
102
RTVSPropertyOp4
 70
     1
102
RTVSPropertyOp5
 70
     1
102
RTVSPropertyOp6
 70
     1
102
RTVSPropertyOp7
 70
     1
102
RTVSPropertyOp8
 70
     1
102
RTVSPropertyOp9
 70
     1
102
RTVSPropertyOp10
 70
     1
102
RTVSPropertyOp11
 70
     1
102
RTVSPropertyOp12
 70
     1
102
RTVSPropertyOp13
 70
     1
102
RTVSPropertyOp14
 70
     1
102
RTVSPropertyOp15
 70
     1
102
RTVSPropertyOp16
 70
     1
102
RTVSPropertyOp17
 70
     1
102
RTVSPropertyOp18
 70
     1
102
RTVSPropertyOp19
 70
     1
102
RTVSPropertyOp20
 70
     1
102
RTVSPropertyOp21
 70
     1
102
RTVSPropertyOp22
 70
     1
102
RTVSPropertyOp23
 70
     1
102
RTVSPropertyOp24
 70
     1
102
RTVSPropertyOp25
 70
     1
102
RTVSPropertyOp26
 70
     1
102
RTVSPropertyOp27
 70
     1
102
RTVSPropertyOp28
 70
     1
102
RTVSPropertyOp29
 70
     1
102
RTVSPropertyOp30
 70
     1
102
RTVSPropertyOp31
 70
     1
102
RTVSPropertyOp32
 70
     1
  0
XRECORD
  5
994
102
{ACAD_REACTORS
330
993
102
}
330
993
100
AcDbXrecord
280
     1
102
RTVSPropertyOp0
 70
     1
102
RTVSPropertyOp1
 70
     1
102
RTVSPropertyOp2
 70
     1
102
RTVSPropertyOp3
 70
     1
102
RTVSPropertyOp4
 70
     1
102
RTVSPropertyOp5
 70
     1
102
RTVSPropertyOp6
 70
     1
102
RTVSPropertyOp7
 70
     1
102
RTVSPropertyOp8
 70
     1
102
RTVSPropertyOp9
 70
     1
102
RTVSPropertyOp10
 70
     1
102
RTVSPropertyOp11
 70
     1
102
RTVSPropertyOp12
 70
     1
102
RTVSPropertyOp13
 70
     1
102
RTVSPropertyOp14
 70
     1
102
RTVSPropertyOp15
 70
     1
102
RTVSPropertyOp16
 70
     1
102
RTVSPropertyOp17
 70
     1
102
RTVSPropertyOp18
 70
     1
102
RTVSPropertyOp19
 70
     1
102
RTVSPropertyOp20
 70
     1
102
RTVSPropertyOp21
 70
     1
102
RTVSPropertyOp22
 70
     1
102
RTVSPropertyOp23
 70
     1
102
RTVSPropertyOp24
 70
     1
102
RTVSPropertyOp25
 70
     1
102
RTVSPropertyOp26
 70
     1
102
RTVSPropertyOp27
 70
     1
102
RTVSPropertyOp28
 70
     1
102
RTVSPropertyOp29
 70
     1
102
RTVSPropertyOp30
 70
     1
102
RTVSPropertyOp31
 70
     1
102
RTVSPropertyOp32
 70
     1
  0
XRECORD
  5
996
102
{ACAD_REACTORS
330
995
102
}
330
995
100
AcDbXrecord
280
     1
102
RTVSPropertyOp0
 70
     1
102
RTVSPropertyOp1
 70
     1
102
RTVSPropertyOp2
 70
     1
102
RTVSPropertyOp3
 70
     1
102
RTVSPropertyOp4
 70
     1
102
RTVSPropertyOp5
 70
     1
102
RTVSPropertyOp6
 70
     1
102
RTVSPropertyOp7
 70
     1
102
RTVSPropertyOp8
 70
     1
102
RTVSPropertyOp9
 70
     1
102
RTVSPropertyOp10
 70
     1
102
RTVSPropertyOp11
 70
     1
102
RTVSPropertyOp12
 70
     1
102
RTVSPropertyOp13
 70
     1
102
RTVSPropertyOp14
 70
     1
102
RTVSPropertyOp15
 70
     1
102
RTVSPropertyOp16
 70
     1
102
RTVSPropertyOp17
 70
     1
102
RTVSPropertyOp18
 70
     1
102
RTVSPropertyOp19
 70
     1
102
RTVSPropertyOp20
 70
     1
102
RTVSPropertyOp21
 70
     1
102
RTVSPropertyOp22
 70
     1
102
RTVSPropertyOp23
 70
     1
102
RTVSPropertyOp24
 70
     1
102
RTVSPropertyOp25
 70
     1
102
RTVSPropertyOp26
 70
     1
102
RTVSPropertyOp27
 70
     1
102
RTVSPropertyOp28
 70
     1
102
RTVSPropertyOp29
 70
     1
102
RTVSPropertyOp30
 70
     1
102
RTVSPropertyOp31
 70
     1
102
RTVSPropertyOp32
 70
     1
  0
XRECORD
  5
98C
102
{ACAD_REACTORS
330
98B
102
}
330
98B
100
AcDbXrecord
280
     1
102
RTVSPropertyOp0
 70
     1
102
RTVSPropertyOp1
 70
     1
102
RTVSPropertyOp2
 70
     1
102
RTVSPropertyOp3
 70
     1
102
RTVSPropertyOp4
 70
     1
102
RTVSPropertyOp5
 70
     1
102
RTVSPropertyOp6
 70
     1
102
RTVSPropertyOp7
 70
     1
102
RTVSPropertyOp8
 70
     1
102
RTVSPropertyOp9
 70
     1
102
RTVSPropertyOp10
 70
     1
102
RTVSPropertyOp11
 70
     1
102
RTVSPropertyOp12
 70
     1
102
RTVSPropertyOp13
 70
     1
102
RTVSPropertyOp14
 70
     1
102
RTVSPropertyOp15
 70
     1
102
RTVSPropertyOp16
 70
     1
102
RTVSPropertyOp17
 70
     1
102
RTVSPropertyOp18
 70
     1
102
RTVSPropertyOp19
 70
     1
102
RTVSPropertyOp20
 70
     1
102
RTVSPropertyOp21
 70
     1
102
RTVSPropertyOp22
 70
     1
102
RTVSPropertyOp23
 70
     1
102
RTVSPropertyOp24
 70
     1
102
RTVSPropertyOp25
 70
     1
102
RTVSPropertyOp26
 70
     1
102
RTVSPropertyOp27
 70
     1
102
RTVSPropertyOp28
 70
     1
102
RTVSPropertyOp29
 70
     1
102
RTVSPropertyOp30
 70
     1
102
RTVSPropertyOp31
 70
     1
102
RTVSPropertyOp32
 70
     1
  0
XRECORD
  5
980
102
{ACAD_REACTORS
330
97F
102
}
330
97F
100
AcDbXrecord
280
     1
102
RTVSPropertyOp0
 70
     1
102
RTVSPropertyOp1
 70
     1
102
RTVSPropertyOp2
 70
     1
102
RTVSPropertyOp3
 70
     1
102
RTVSPropertyOp4
 70
     1
102
RTVSPropertyOp5
 70
     1
102
RTVSPropertyOp6
 70
     1
102
RTVSPropertyOp7
 70
     1
102
RTVSPropertyOp8
 70
     1
102
RTVSPropertyOp9
 70
     1
102
RTVSPropertyOp10
 70
     1
102
RTVSPropertyOp11
 70
     1
102
RTVSPropertyOp12
 70
     1
102
RTVSPropertyOp13
 70
     1
102
RTVSPropertyOp14
 70
     1
102
RTVSPropertyOp15
 70
     1
102
RTVSPropertyOp16
 70
     1
102
RTVSPropertyOp17
 70
     1
102
RTVSPropertyOp18
 70
     1
102
RTVSPropertyOp19
 70
     1
102
RTVSPropertyOp20
 70
     1
102
RTVSPropertyOp21
 70
     1
102
RTVSPropertyOp22
 70
     1
102
RTVSPropertyOp23
 70
     1
102
RTVSPropertyOp24
 70
     1
102
RTVSPropertyOp25
 70
     1
102
RTVSPropertyOp26
 70
     1
102
RTVSPropertyOp27
 70
     1
102
RTVSPropertyOp28
 70
     1
102
RTVSPropertyOp29
 70
     1
102
RTVSPropertyOp30
 70
     1
102
RTVSPropertyOp31
 70
     1
102
RTVSPropertyOp32
 70
     1
  0
XRECORD
  5
998
102
{ACAD_REACTORS
330
997
102
}
330
997
100
AcDbXrecord
280
     1
102
RTVSPropertyOp0
 70
     1
102
RTVSPropertyOp1
 70
     1
102
RTVSPropertyOp2
 70
     1
102
RTVSPropertyOp3
 70
     1
102
RTVSPropertyOp4
 70
     1
102
RTVSPropertyOp5
 70
     1
102
RTVSPropertyOp6
 70
     1
102
RTVSPropertyOp7
 70
     1
102
RTVSPropertyOp8
 70
     1
102
RTVSPropertyOp9
 70
     1
102
RTVSPropertyOp10
 70
     1
102
RTVSPropertyOp11
 70
     1
102
RTVSPropertyOp12
 70
     1
102
RTVSPropertyOp13
 70
     1
102
RTVSPropertyOp14
 70
     1
102
RTVSPropertyOp15
 70
     1
102
RTVSPropertyOp16
 70
     1
102
RTVSPropertyOp17
 70
     1
102
RTVSPropertyOp18
 70
     1
102
RTVSPropertyOp19
 70
     1
102
RTVSPropertyOp20
 70
     1
102
RTVSPropertyOp21
 70
     1
102
RTVSPropertyOp22
 70
     1
102
RTVSPropertyOp23
 70
     1
102
RTVSPropertyOp24
 70
     1
102
RTVSPropertyOp25
 70
     1
102
RTVSPropertyOp26
 70
     1
102
RTVSPropertyOp27
 70
     1
102
RTVSPropertyOp28
 70
     1
102
RTVSPropertyOp29
 70
     1
102
RTVSPropertyOp30
 70
     1
102
RTVSPropertyOp31
 70
     1
102
RTVSPropertyOp32
 70
     1
  0
ENDSEC
  0
EOF
