  0
SECTION
  2
HEADER
  9
$ACADVER
  1
AC1018
  9
$ACADMAINTVER
 70
   104
  9
$DWGCODEPAGE
  3
ANSI_932
  9
$LASTSAVEDBY
  1
tic-shibatatoyoko
  9
$INSBASE
 10
0.0
 20
0.0
 30
0.0
  9
$EXTMIN
 10
234.9728990530275
 20
-23700.00000000002
 30
0.0
  9
$EXTMAX
 10
23500.22857542949
 20
2382.267575965566
 30
0.0
  9
$LIMMIN
 10
0.0
 20
0.0
  9
$LIMMAX
 10
420.0
 20
297.0
  9
$ORTHOMODE
 70
     0
  9
$REGENMODE
 70
     1
  9
$FILLMODE
 70
     1
  9
$QTEXTMODE
 70
     0
  9
$MIRRTEXT
 70
     0
  9
$LTSCALE
 40
1.0
  9
$ATTMODE
 70
     1
  9
$TEXTSIZE
 40
2.5
  9
$TRACEWID
 40
1.0
  9
$TEXTSTYLE
  7
STANDARD
  9
$CLAYER
  8
0
  9
$CELTYPE
  6
ByLayer
  9
$CECOLOR
 62
   256
  9
$CELTSCALE
 40
1.0
  9
$DISPSILH
 70
     0
  9
$DIMSCALE
 40
1.0
  9
$DIMASZ
 40
3.5
  9
$DIMEXO
 40
1.0
  9
$DIMDLI
 40
10.0
  9
$DIMRND
 40
0.0
  9
$DIMDLE
 40
0.0
  9
$DIMEXE
 40
1.0
  9
$DIMTP
 40
0.1
  9
$DIMTM
 40
0.1
  9
$DIMTXT
 40
3.5
  9
$DIMCEN
 40
0.0
  9
$DIMTSZ
 40
0.0
  9
$DIMTOL
 70
     0
  9
$DIMLIM
 70
     0
  9
$DIMTIH
 70
     0
  9
$DIMTOH
 70
     0
  9
$DIMSE1
 70
     0
  9
$DIMSE2
 70
     0
  9
$DIMTAD
 70
     1
  9
$DIMZIN
 70
     8
  9
$DIMBLK
  1

  9
$DIMASO
 70
     1
  9
$DIMSHO
 70
     1
  9
$DIMPOST
  1

  9
$DIMAPOST
  1
"
  9
$DIMALT
 70
     0
  9
$DIMALTD
 70
     2
  9
$DIMALTF
 40
0.0393701
  9
$DIMLFAC
 40
1.0
  9
$DIMTOFL
 70
     1
  9
$DIMTVP
 40
0.0
  9
$DIMTIX
 70
     0
  9
$DIMSOXD
 70
     0
  9
$DIMSAH
 70
     0
  9
$DIMBLK1
  1

  9
$DIMBLK2
  1

  9
$DIMSTYLE
  2
AM_ISO
  9
$DIMCLRD
 70
   256
  9
$DIMCLRE
 70
   256
  9
$DIMCLRT
 70
     2
  9
$DIMTFAC
 40
0.71
  9
$DIMGAP
 40
1.5
  9
$DIMJUST
 70
     0
  9
$DIMSD1
 70
     0
  9
$DIMSD2
 70
     0
  9
$DIMTOLJ
 70
     0
  9
$DIMTZIN
 70
     8
  9
$DIMALTZ
 70
     0
  9
$DIMALTTZ
 70
     0
  9
$DIMUPT
 70
     0
  9
$DIMDEC
 70
     2
  9
$DIMTDEC
 70
     3
  9
$DIMALTU
 70
     2
  9
$DIMALTTD
 70
     4
  9
$DIMTXSTY
  7
STANDARD
  9
$DIMAUNIT
 70
     0
  9
$DIMADEC
 70
     0
  9
$DIMALTRND
 40
0.0
  9
$DIMAZIN
 70
     2
  9
$DIMDSEP
 70
    46
  9
$DIMATFIT
 70
     3
  9
$DIMFRAC
 70
     0
  9
$DIMLDRBLK
  1

  9
$DIMLUNIT
 70
     2
  9
$DIMLWD
 70
    -1
  9
$DIMLWE
 70
    -1
  9
$DIMTMOVE
 70
     0
  9
$LUNITS
 70
     2
  9
$LUPREC
 70
     2
  9
$SKETCHINC
 40
1.0
  9
$FILLETRAD
 40
2.5
  9
$AUNITS
 70
     0
  9
$AUPREC
 70
     0
  9
$MENU
  1
.
  9
$ELEVATION
 40
0.0
  9
$PELEVATION
 40
0.0
  9
$THICKNESS
 40
0.0
  9
$LIMCHECK
 70
     0
  9
$CHAMFERA
 40
2.5
  9
$CHAMFERB
 40
2.5
  9
$CHAMFERC
 40
0.0
  9
$CHAMFERD
 40
0.0
  9
$SKPOLY
 70
     0
  9
$TDCREATE
 40
2456115.556203333
  9
$TDUCREATE
 40
2456115.181203333
  9
$TDUPDATE
 40
2456115.563487384
  9
$TDUUPDATE
 40
2456115.188487384
  9
$TDINDWG
 40
0.0072851389
  9
$TDUSRTIMER
 40
0.0072851389
  9
$USRTIMER
 70
     1
  9
$ANGBASE
 50
0.0
  9
$ANGDIR
 70
     0
  9
$PDMODE
 70
     0
  9
$PDSIZE
 40
0.0
  9
$PLINEWID
 40
0.0
  9
$SPLFRAME
 70
     0
  9
$SPLINETYPE
 70
     6
  9
$SPLINESEGS
 70
     8
  9
$HANDSEED
  5
880
  9
$SURFTAB1
 70
     6
  9
$SURFTAB2
 70
     6
  9
$SURFTYPE
 70
     6
  9
$SURFU
 70
     6
  9
$SURFV
 70
     6
  9
$UCSBASE
  2

  9
$UCSNAME
  2

  9
$UCSORG
 10
0.0
 20
0.0
 30
0.0
  9
$UCSXDIR
 10
1.0
 20
0.0
 30
0.0
  9
$UCSYDIR
 10
0.0
 20
1.0
 30
0.0
  9
$UCSORTHOREF
  2

  9
$UCSORTHOVIEW
 70
     0
  9
$UCSORGTOP
 10
0.0
 20
0.0
 30
0.0
  9
$UCSORGBOTTOM
 10
0.0
 20
0.0
 30
0.0
  9
$UCSORGLEFT
 10
0.0
 20
0.0
 30
0.0
  9
$UCSORGRIGHT
 10
0.0
 20
0.0
 30
0.0
  9
$UCSORGFRONT
 10
0.0
 20
0.0
 30
0.0
  9
$UCSORGBACK
 10
0.0
 20
0.0
 30
0.0
  9
$PUCSBASE
  2

  9
$PUCSNAME
  2

  9
$PUCSORG
 10
0.0
 20
0.0
 30
0.0
  9
$PUCSXDIR
 10
1.0
 20
0.0
 30
0.0
  9
$PUCSYDIR
 10
0.0
 20
1.0
 30
0.0
  9
$PUCSORTHOREF
  2

  9
$PUCSORTHOVIEW
 70
     0
  9
$PUCSORGTOP
 10
0.0
 20
0.0
 30
0.0
  9
$PUCSORGBOTTOM
 10
0.0
 20
0.0
 30
0.0
  9
$PUCSORGLEFT
 10
0.0
 20
0.0
 30
0.0
  9
$PUCSORGRIGHT
 10
0.0
 20
0.0
 30
0.0
  9
$PUCSORGFRONT
 10
0.0
 20
0.0
 30
0.0
  9
$PUCSORGBACK
 10
0.0
 20
0.0
 30
0.0
  9
$USERI1
 70
     0
  9
$USERI2
 70
     0
  9
$USERI3
 70
     0
  9
$USERI4
 70
     0
  9
$USERI5
 70
     0
  9
$USERR1
 40
0.0
  9
$USERR2
 40
0.0
  9
$USERR3
 40
0.0
  9
$USERR4
 40
0.0
  9
$USERR5
 40
0.0
  9
$WORLDVIEW
 70
     1
  9
$SHADEDGE
 70
     3
  9
$SHADEDIF
 70
    70
  9
$TILEMODE
 70
     1
  9
$MAXACTVP
 70
    64
  9
$PINSBASE
 10
0.0
 20
0.0
 30
0.0
  9
$PLIMCHECK
 70
     0
  9
$PEXTMIN
 10
1.000000000000000E+20
 20
1.000000000000000E+20
 30
1.000000000000000E+20
  9
$PEXTMAX
 10
-1.000000000000000E+20
 20
-1.000000000000000E+20
 30
-1.000000000000000E+20
  9
$PLIMMIN
 10
0.0
 20
0.0
  9
$PLIMMAX
 10
420.0
 20
297.0
  9
$UNITMODE
 70
     0
  9
$VISRETAIN
 70
     1
  9
$PLINEGEN
 70
     0
  9
$PSLTSCALE
 70
     1
  9
$TREEDEPTH
 70
  3020
  9
$CMLSTYLE
  2
Standard
  9
$CMLJUST
 70
     0
  9
$CMLSCALE
 40
20.0
  9
$PROXYGRAPHICS
 70
     1
  9
$MEASUREMENT
 70
     1
  9
$CELWEIGHT
370
    -1
  9
$ENDCAPS
280
     0
  9
$JOINSTYLE
280
     0
  9
$LWDISPLAY
290
     0
  9
$INSUNITS
 70
     4
  9
$HYPERLINKBASE
  1

  9
$STYLESHEET
  1

  9
$XEDIT
290
     1
  9
$CEPSNTYPE
380
     0
  9
$PSTYLEMODE
290
     1
  9
$FINGERPRINTGUID
  2
{B45FA4F3-4737-4F17-A521-4EF732B81D37}
  9
$VERSIONGUID
  2
{A1E6F3F3-20E0-41CF-9098-9CD89C9D476E}
  9
$EXTNAMES
290
     1
  9
$PSVPSCALE
 40
0.0
  9
$OLESTARTUP
290
     0
  9
$SORTENTS
280
   127
  9
$INDEXCTL
280
     0
  9
$HIDETEXT
280
     1
  9
$XCLIPFRAME
290
     0
  9
$HALOGAP
280
     0
  9
$OBSCOLOR
 70
   257
  9
$OBSLTYPE
280
     0
  9
$INTERSECTIONDISPLAY
280
     0
  9
$INTERSECTIONCOLOR
 70
   257
  9
$DIMASSOC
280
     2
  9
$PROJECTNAME
  1

  0
ENDSEC
  0
SECTION
  2
CLASSES
  0
CLASS
  1
ACDBDICTIONARYWDFLT
  2
AcDbDictionaryWithDefault
  3
ObjectDBX Classes
 90
        0
 91
        1
280
     0
281
     0
  0
CLASS
  1
MATERIAL
  2
AcDbMaterial
  3
ObjectDBX Classes
 90
     1153
 91
        3
280
     0
281
     0
  0
CLASS
  1
VISUALSTYLE
  2
AcDbVisualStyle
  3
ObjectDBX Classes
 90
     4095
 91
       25
280
     0
281
     0
  0
CLASS
  1
SCALE
  2
AcDbScale
  3
ObjectDBX Classes
 90
     1153
 91
       17
280
     0
281
     0
  0
CLASS
  1
TABLESTYLE
  2
AcDbTableStyle
  3
ObjectDBX Classes
 90
     4095
 91
        1
280
     0
281
     0
  0
CLASS
  1
MLEADERSTYLE
  2
AcDbMLeaderStyle
  3
ACDB_MLEADERSTYLE_CLASS
 90
     4095
 91
        1
280
     0
281
     0
  0
CLASS
  1
AMGSETTINGSOBJ
  2
AmgSettingsObj
  3
"AcadM|Product Description: AutoCAD Mechanical|Company: Autodesk, Inc."
 90
     1024
 91
        2
280
     0
281
     0
  0
CLASS
  1
ACME_DOCUMENT
  2
AcMeDbDoc
  3
AcMeServices
 90
     1024
 91
        1
280
     0
281
     0
  0
CLASS
  1
ACMESCOPE
  2
AcMeScope
  3
AcMeServices
 90
     1024
 91
        1
280
     0
281
     0
  0
CLASS
  1
ACMECOMMANDHISTORY
  2
AcMeCommandHistory
  3
AcMeServices
 90
     1024
 91
        1
280
     0
281
     0
  0
CLASS
  1
ACIMSYSVARMAN
  2
AcImSysVarManager
  3
AcMeServices
 90
     1024
 91
        3
280
     0
281
     0
  0
CLASS
  1
ACIMINTSYSVAR
  2
AcImIntSysVar
  3
AcMeServices
 90
     1024
 91
        2
280
     0
281
     0
  0
CLASS
  1
ACMESTATEMGR
  2
AcMeStateMgr
  3
AcMeServices
 90
     1024
 91
        1
280
     0
281
     0
  0
CLASS
  1
ACDBENTITYCACHE
  2
AcMeEntityCache
  3
AcMeServices
 90
     1024
 91
        1
280
     0
281
     0
  0
CLASS
  1
ACGREFMASTER
  2
AcGrefMaster
  3
AcAttribServices
 90
     1024
 91
        1
280
     0
281
     0
  0
CLASS
  1
ACME_DATABASE
  2
AcMeDbDatabase
  3
AcMeServices
 90
     1024
 91
        2
280
     0
281
     0
  0
CLASS
  1
ACRFINSADJUSTERMGR
  2
AcRfInsAdjusterMgr
  3
AcMeServices
 90
     1024
 91
        1
280
     0
281
     0
  0
CLASS
  1
ACGREFACADMASTER
  2
AcGrefacadMaster
  3
AcGrefServices
 90
     1024
 91
        1
280
     0
281
     0
  0
CLASS
  1
AMDTMENUSTATEMGR
  2
AmdtMenuStateMgr
  3
McadcomServices
 90
     1024
 91
        1
280
     0
281
     0
  0
CLASS
  1
AMDTMCOMMENUSTATE
  2
AmdtMcomMenuState
  3
McadcomServices
 90
     1024
 91
        1
280
     0
281
     0
  0
CLASS
  1
AMIMASTER
  2
AmiMaster
  3
AmiServices
 90
     1024
 91
        1
280
     0
281
     0
  0
CLASS
  1
MAPIAMMOUDLE
  2
MApiAmModule
  3
MApiAmServices
 90
     1024
 91
        1
280
     0
281
     0
  0
CLASS
  1
ACIMSTRSYSVAR
  2
AcImStrSysVar
  3
AcMeServices
 90
     1024
 91
        5
280
     0
281
     0
  0
CLASS
  1
AMDTAMMENUSTATE
  2
AmdtAmMenuState
  3
DesignerAssemblies
 90
     1024
 91
        1
280
     0
281
     0
  0
CLASS
  1
ACAMPROJECT
  2
AcAmProject
  3
DesignerAssemblies
 90
     1024
 91
        1
280
     0
281
     0
  0
CLASS
  1
ACAMGRCOMPDEF
  2
AcAmGrCompDef
  3
DesignerAssemblies
 90
     1024
 91
        1
280
     0
281
     0
  0
CLASS
  1
ACAMCOMPDEF
  2
AcAmCompDef
  3
DesignerAssemblies
 90
     1024
 91
        1
280
     0
281
     0
  0
CLASS
  1
ACAMCOMPDEFMGR
  2
AcAmCompDefMgr
  3
DesignerAssemblies
 90
     1024
 91
        1
280
     0
281
     0
  0
CLASS
  1
AMCONTEXTMGR
  2
AcAmContextMgr
  3
DesignerAssemblies
 90
     1024
 91
        1
280
     0
281
     0
  0
CLASS
  1
ACAMCONTEXTMODELER
  2
AcAmContextModeler
  3
DesignerAssemblies
 90
     1024
 91
        1
280
     0
281
     0
  0
CLASS
  1
ACMDATADICTIONARY
  2
AcmDataDictionary
  3
"AcmSymBB|Product Description: AutoCAD Mechanical|Company: Autodesk, Inc."
 90
     1024
 91
        1
280
     0
281
     0
  0
CLASS
  1
ACMSTANDARDISO
  2
AcmStandardISO
  3
"Amdt_StdImp|Product Description: AutoCAD Mechanical|Company: Autodesk, Inc."
 90
     1024
 91
        1
280
     0
281
     0
  0
CLASS
  1
AMDTEDGESTANDARDISO13715
  2
AmdtEdgeStdISO13715
  3
"Amdt_StdImp|Product Description: AutoCAD Mechanical|Company: Autodesk, Inc."
 90
     1024
 91
        1
280
     0
281
     0
  0
CLASS
  1
ACMSURFSTANDARDISO2002
  2
AcmSurfTextStdISO2002
  3
"Amdt_StdImp|Product Description: AutoCAD Mechanical|Company: Autodesk, Inc."
 90
     1024
 91
        1
280
     0
281
     0
  0
CLASS
  1
ACMFCFSTANDARDISO2004
  2
AcmFCFStdISO2004
  3
"Amdt_StdImp|Product Description: AutoCAD Mechanical|Company: Autodesk, Inc."
 90
     1024
 91
        1
280
     0
281
     0
  0
CLASS
  1
ACMWELDSTANDARDISO
  2
AcmWeldingStdISO
  3
"Amdt_StdImp|Product Description: AutoCAD Mechanical|Company: Autodesk, Inc."
 90
     1024
 91
        1
280
     0
281
     0
  0
CLASS
  1
ACMIDSTANDARDISO2004
  2
AcmIdStdISO2004
  3
"Amdt_StdImp|Product Description: AutoCAD Mechanical|Company: Autodesk, Inc."
 90
     1024
 91
        1
280
     0
281
     0
  0
CLASS
  1
ACMDATUMSTANDARDISO
  2
AcmDatumStdISO
  3
"Amdt_StdImp|Product Description: AutoCAD Mechanical|Company: Autodesk, Inc."
 90
     1024
 91
        1
280
     0
281
     0
  0
CLASS
  1
ACMBOMSTANDARDISO
  2
AcmBOMStdISO
  3
"Amdt_StdImp|Product Description: AutoCAD Mechanical|Company: Autodesk, Inc."
 90
     1024
 91
        1
280
     0
281
     0
  0
CLASS
  1
ACMDETAILSTANDARDISO
  2
AmdtDetailSymStdISO
  3
"Amdt_StdImp|Product Description: AutoCAD Mechanical|Company: Autodesk, Inc."
 90
     1024
 91
        1
280
     0
281
     0
  0
CLASS
  1
ACMSECTIONSTANDARDISO2001
  2
AmdtSectionSymStdISO2001
  3
"Amdt_StdImp|Product Description: AutoCAD Mechanical|Company: Autodesk, Inc."
 90
     1024
 91
        1
280
     0
281
     0
  0
CLASS
  1
ACMCENTERLINESTANDARDISO
  2
AmdtCenterLineStdISO
  3
"Amdt_StdImp|Product Description: AutoCAD Mechanical|Company: Autodesk, Inc."
 90
     1024
 91
        1
280
     0
281
     0
  0
CLASS
  1
ACMTHREADLINESTANDARDISO
  2
AmdtThreadLineStdISO
  3
"Amdt_StdImp|Product Description: AutoCAD Mechanical|Company: Autodesk, Inc."
 90
     1024
 91
        1
280
     0
281
     0
  0
CLASS
  1
ACMNOTESTANDARDISO
  2
AmdtNoteStdISO
  3
"Amdt_StdImp|Product Description: AutoCAD Mechanical|Company: Autodesk, Inc."
 90
     1024
 91
        1
280
     0
281
     0
  0
CLASS
  1
ACMTAPERSTANDARDISO
  2
AcmTaperStdISO
  3
"Amdt_StdImp|Product Description: AutoCAD Mechanical|Company: Autodesk, Inc."
 90
     1024
 91
        1
280
     0
281
     0
  0
CLASS
  1
ACMANOOTATIONVIEWSTANDARDISO
  2
AmdtAnViewStdISO
  3
"Amdt_StdImp|Product Description: AutoCAD Mechanical|Company: Autodesk, Inc."
 90
     1024
 91
        1
280
     0
281
     0
  0
CLASS
  1
ACAMGLAYSTD
  2
AcAmgLayStd
  3
"AmgLay|Product Description: AutoCAD Mechanical|Company: Autodesk, Inc."
 90
     1024
 91
        1
280
     0
281
     0
  0
CLASS
  1
ACAMGDIMSTD
  2
AcAmgDimStd
  3
"AmgDim|Product Description: AutoCAD Mechanical|Company: Autodesk, Inc."
 90
     1024
 91
        1
280
     0
281
     0
  0
CLASS
  1
AMGOBJPROPCFG
  2
AmgObjPropCfg
  3
"AmgLay|Product Description: AutoCAD Mechanical|Company: Autodesk, Inc."
 90
     1025
 91
        1
280
     0
281
     0
  0
CLASS
  1
ACAMGHOLECHARTSTDISO
  2
AcAmgHoleChartStdISO
  3
AmgDim|Product Description: AutoCAD Mechanical|Company: Autodesk, Inc.
 90
     1024
 91
        1
280
     0
281
     0
  0
CLASS
  1
ACAMGTITLESTD
  2
AcAmgTitleStd
  3
"AmgTitle|Product Description: AutoCAD Mechanical|Company: Autodesk, Inc."
 90
     4095
 91
        1
280
     0
281
     0
  0
CLASS
  1
AMDTNOTETEMPLATEDB
  2
AmdtNoteTemplateDB
  3
AcmSymBB|Product Description: AutoCAD Mechanical|Company: Autodesk, Inc.
 90
     1024
 91
        6
280
     0
281
     0
  0
CLASS
  1
ACAMGRCOMPDEFSET
  2
AcAmGrCompDefSet
  3
DesignerAssemblies
 90
     1024
 91
        1
280
     0
281
     0
  0
CLASS
  1
AMDTBROWSERDBTAB
  2
AmdtBrowserDbTab
  3
McadcomServices
 90
     1024
 91
        1
280
     0
281
     0
  0
CLASS
  1
CBROWSERAPPOBJECT
  2
CBrowserAppObject
  3
McadcomServices
 90
     1024
 91
        2
280
     0
281
     0
  0
CLASS
  1
DM_PLACEHOLDER
  2
AcDmSelsetPlaceholder
  3
McadcomServices
 90
     1024
 91
        1
280
     0
281
     0
  0
CLASS
  1
EXACXREFPANELOBJECT
  2
ExAcXREFPanelObject
  3
EXAC_ESW
 90
     1025
 91
        1
280
     0
281
     0
  0
CLASS
  1
NPOCOLLECTION
  2
AcDbImpNonPersistentObjectsCollection
  3
ObjectDBX Classes
 90
     1153
 91
        1
280
     0
281
     0
  0
CLASS
  1
SORTENTSTABLE
  2
AcDbSortentsTable
  3
ObjectDBX Classes
 90
        0
 91
        1
280
     0
281
     0
  0
CLASS
  1
ACAMGFILTERDAT
  2
AcAmgFilterDat
  3
"AcadM|Product Description: AutoCAD Mechanical|Company: Autodesk, Inc."
 90
     1024
 91
        6
280
     0
281
     0
  0
CLASS
  1
CAMSSTRUCTBTNSTATE
  2
StructBtnState
  3
DesignerAssemblies
 90
     1024
 91
        1
280
     0
281
     0
  0
CLASS
  1
DICTIONARYVAR
  2
AcDbDictionaryVar
  3
ObjectDBX Classes
 90
        0
 91
       19
280
     0
281
     0
  0
CLASS
  1
CELLSTYLEMAP
  2
AcDbCellStyleMap
  3
ObjectDBX Classes
 90
     1152
 91
        2
280
     0
281
     0
  0
ENDSEC
  0
SECTION
  2
TABLES
  0
TABLE
  2
VPORT
  5
8
330
0
100
AcDbSymbolTable
 70
     1
  0
VPORT
  5
57
330
8
100
AcDbSymbolTableRecord
100
AcDbViewportTableRecord
  2
*Active
 70
     0
 10
0.0
 20
0.0
 11
1.0
 21
1.0
 12
11867.60073724125
 22
-10658.86621201723
 13
0.0
 23
0.0
 14
2.5
 24
2.5
 15
10.0
 25
10.0
 16
0.0
 26
0.0
 36
1.0
 17
0.0
 27
0.0
 37
0.0
 40
26276.66957032061
 41
2.360696517412935
 42
50.0
 43
0.0
 44
0.0
 50
0.0
 51
0.0
 71
     0
 72
  1000
 73
     1
 74
     3
 75
     0
 76
     0
 77
     0
 78
     0
281
     0
 65
     0
110
0.0
120
0.0
130
0.0
111
1.0
121
0.0
131
0.0
112
0.0
122
1.0
132
0.0
 79
     0
146
0.0
1001
ACAD_NAV_VCDISPLAY
1070
     1
  0
ENDTAB
  0
TABLE
  2
LTYPE
  5
5
330
0
100
AcDbSymbolTable
 70
    16
  0
LTYPE
  5
5B
330
5
100
AcDbSymbolTableRecord
100
AcDbLinetypeTableRecord
  2
ByBlock
 70
     0
  3

 72
    65
 73
     0
 40
0.0
  0
LTYPE
  5
5C
330
5
100
AcDbSymbolTableRecord
100
AcDbLinetypeTableRecord
  2
ByLayer
 70
     0
  3

 72
    65
 73
     0
 40
0.0
  0
LTYPE
  5
5D
330
5
100
AcDbSymbolTableRecord
100
AcDbLinetypeTableRecord
  2
Continuous
 70
     0
  3
Solid line
 72
    65
 73
     0
 40
0.0
  0
LTYPE
  5
84
330
5
100
AcDbSymbolTableRecord
100
AcDbLinetypeTableRecord
  2
HIDDEN
 70
     0
  3
Hidden __ __ __ __ __ __ __ __ __ __ __ __ __ _
 72
    65
 73
     2
 40
9.524999999999998
 49
6.349999999999999
 74
     0
 49
-3.174999999999999
 74
     0
  0
LTYPE
  5
85
330
5
100
AcDbSymbolTableRecord
100
AcDbLinetypeTableRecord
  2
PHANTOM2
 70
     0
  3
Phantom (.5x) ___ _ _ ___ _ _ ___ _ _ ___ _ _
 72
    65
 73
     6
 40
31.75
 49
15.875
 74
     0
 49
-3.174999999999999
 74
     0
 49
3.174999999999999
 74
     0
 49
-3.174999999999999
 74
     0
 49
3.174999999999999
 74
     0
 49
-3.174999999999999
 74
     0
  0
LTYPE
  5
86
330
5
100
AcDbSymbolTableRecord
100
AcDbLinetypeTableRecord
  2
CENTER
 70
     0
  3
Center ____ _ ____ _ ____ _ ____ _ ____ _ ____
 72
    65
 73
     4
 40
50.8
 49
31.75
 74
     0
 49
-6.349999999999999
 74
     0
 49
6.349999999999999
 74
     0
 49
-6.349999999999999
 74
     0
  0
LTYPE
  5
BC
330
5
100
AcDbSymbolTableRecord
100
AcDbLinetypeTableRecord
  2
AM_ISO02W050
 70
     0
  3
__ __ __ __ __ __ __ __ __ __ __ __ __ __ __
 72
    65
 73
     2
 40
7.5
 49
6.0
 74
     0
 49
-1.5
 74
     0
  0
LTYPE
  5
BD
330
5
100
AcDbSymbolTableRecord
100
AcDbLinetypeTableRecord
  2
AM_ISO08W050
 70
     0
  3
____ . ____ . ____ . ____ . ____ . ____ . ____
 72
    65
 73
     4
 40
18.0
 49
12.0
 74
     0
 49
-1.5
 74
     0
 49
3.0
 74
     0
 49
-1.5
 74
     0
  0
LTYPE
  5
BE
330
5
100
AcDbSymbolTableRecord
100
AcDbLinetypeTableRecord
  2
AM_ISO09W050
 70
     0
  3
_____ . . _____ . . _____ . . ____ .. ____
 72
    65
 73
     6
 40
22.5
 49
12.0
 74
     0
 49
-1.5
 74
     0
 49
3.0
 74
     0
 49
-1.5
 74
     0
 49
3.0
 74
     0
 49
-1.5
 74
     0
  0
LTYPE
  5
BF
330
5
100
AcDbSymbolTableRecord
100
AcDbLinetypeTableRecord
  2
Amconstr
 70
     0
  3
_______________________
 72
    65
 73
     2
 40
9999.0
 49
9999.0
 74
     0
 49
0.0
 74
     0
  0
LTYPE
  5
C0
330
5
100
AcDbSymbolTableRecord
100
AcDbLinetypeTableRecord
  2
AM_ISO08W050x2
 70
     0
  3
__ . __ . __ . __ . __ . __
 72
    65
 73
     4
 40
9.0
 49
6.0
 74
     0
 49
-0.75
 74
     0
 49
1.5
 74
     0
 49
-0.75
 74
     0
  0
LTYPE
  5
C1
330
5
100
AcDbSymbolTableRecord
100
AcDbLinetypeTableRecord
  2
AM_ISO02W050x2
 70
     0
  3
 _ _ _ _ _ _ _ _ _ _ _ _
 72
    65
 73
     2
 40
3.75
 49
3.0
 74
     0
 49
-0.75
 74
     0
  0
LTYPE
  5
C4
330
5
100
AcDbSymbolTableRecord
100
AcDbLinetypeTableRecord
  2
Amzigzag
 70
     0
  3
/\/-/\/-/\/-/\/-/\/-/\/
 72
    65
 73
     2
 40
11.0001
 49
0.0001
 74
     4
 75
   136
340
C3
 46
0.04
 50
0.0
 44
0.0
 45
0.0
 49
-11.0
 74
     0
  0
LTYPE
  5
D3
330
5
100
AcDbSymbolTableRecord
100
AcDbLinetypeTableRecord
  2
ACISOWELD
 70
     0
  3
_ _ _ _ _
 72
    65
 73
     2
 40
2.0
 49
2.0
 74
     0
 49
-1.0
 74
     0
  0
LTYPE
  5
D4
330
5
100
AcDbSymbolTableRecord
100
AcDbLinetypeTableRecord
  2
ACISOTGL
 70
     0
  3
_ _ _ _ _
 72
    65
 73
     2
 40
3.0
 49
2.0
 74
     0
 49
-1.0
 74
     0
  0
LTYPE
  5
D5
330
5
100
AcDbSymbolTableRecord
100
AcDbLinetypeTableRecord
  2
ACISOTGB
 70
     0
  3
__ . . __ . .
 72
    65
 73
     6
 40
9.0
 49
4.0
 74
     0
 49
-1.0
 74
     0
 49
1.0
 74
     0
 49
-1.0
 74
     0
 49
1.0
 74
     0
 49
-1.0
 74
     0
  0
LTYPE
  5
E7
330
5
100
AcDbSymbolTableRecord
100
AcDbLinetypeTableRecord
  2
L20
 70
     0
  3
-- -- -- -- 2,-1,2,-1
 72
    65
 73
     4
 40
6.0
 49
2.0
 74
     0
 49
-1.0
 74
     0
 49
2.0
 74
     0
 49
-1.0
 74
     0
  0
ENDTAB
  0
TABLE
  2
LAYER
  5
2
102
{ACAD_XDICTIONARY
360
FC
102
}
330
0
100
AcDbSymbolTable
 70
     6
  0
LAYER
  5
54
330
2
100
AcDbSymbolTableRecord
100
AcDbLayerTableRecord
  2
0
 70
     0
 62
     7
  6
Continuous
370
    -3
390
F
  0
LAYER
  5
E8
102
{ACAD_XDICTIONARY
360
E9
102
}
330
2
100
AcDbSymbolTableRecord
100
AcDbLayerTableRecord
  2
4
 70
     0
 62
     3
  6
Continuous
370
     0
390
F
  0
LAYER
  5
EA
102
{ACAD_XDICTIONARY
360
EB
102
}
330
2
100
AcDbSymbolTableRecord
100
AcDbLayerTableRecord
  2
SUNPO
 70
     0
 62
     1
  6
Continuous
370
    -3
390
F
  0
LAYER
  5
EC
102
{ACAD_XDICTIONARY
360
ED
102
}
330
2
100
AcDbSymbolTableRecord
100
AcDbLayerTableRecord
  2
MOJI
 70
     0
 62
     7
  6
Continuous
370
    -3
390
F
  0
LAYER
  5
EE
102
{ACAD_XDICTIONARY
360
EF
102
}
330
2
100
AcDbSymbolTableRecord
100
AcDbLayerTableRecord
  2
SEN
 70
     0
 62
     6
  6
Continuous
370
    -3
390
F
  0
LAYER
  5
F0
102
{ACAD_XDICTIONARY
360
F1
102
}
330
2
100
AcDbSymbolTableRecord
100
AcDbLayerTableRecord
  2
1
 70
     0
 62
    14
  6
Continuous
370
    -3
390
F
  0
ENDTAB
  0
TABLE
  2
STYLE
  5
3
330
0
100
AcDbSymbolTable
 70
     8
  0
STYLE
  5
55
330
3
100
AcDbSymbolTableRecord
100
AcDbTextStyleTableRecord
  2
STANDARD
 70
     0
 40
0.0
 41
1.0
 50
0.0
 71
     0
 42
2.5
  3
ISOCP.SHX
  4
EXTFONT.SHX
  0
STYLE
  5
5A
330
3
100
AcDbSymbolTableRecord
100
AcDbTextStyleTableRecord
  2
Annotative
 70
     0
 40
0.0
 41
1.0
 50
0.0
 71
     0
 42
0.2
  3
txt
  4

1001
AcadAnnotative
1000
AnnotativeData
1002
{
1070
     1
1070
     1
1002
}
  0
STYLE
  5
C3
330
3
100
AcDbSymbolTableRecord
100
AcDbTextStyleTableRecord
  2

 70
     1
 40
0.0
 41
1.0
 50
0.0
 71
     0
 42
2.5
  3
genltshp.shx
  4

  0
STYLE
  5
D1
330
3
100
AcDbSymbolTableRecord
100
AcDbTextStyleTableRecord
  2
ACISOTS
 70
     0
 40
1.0
 41
1.0
 50
0.0
 71
     0
 42
2.5
  3
isocp.shx
  4
extfont.shx
  0
STYLE
  5
D2
330
3
100
AcDbSymbolTableRecord
100
AcDbTextStyleTableRecord
  2
ACISOGDT
 70
     0
 40
0.0
 41
1.0
 50
0.0
 71
     0
 42
2.5
  3
amgdt.shx
  4

  0
STYLE
  5
E3
330
3
100
AcDbSymbolTableRecord
100
AcDbTextStyleTableRecord
  2
USER1
 70
     0
 40
0.0
 41
1.0
 50
0.0
 71
     0
 42
2.5
  3
TXT.SHX
  4

  0
STYLE
  5
E4
330
3
100
AcDbSymbolTableRecord
100
AcDbTextStyleTableRecord
  2
USER2
 70
     0
 40
0.0
 41
1.0
 50
0.0
 71
     0
 42
2.5
  3
SIMPLEX.SHX
  4

  0
STYLE
  5
E5
330
3
100
AcDbSymbolTableRecord
100
AcDbTextStyleTableRecord
  2
USER3
 70
     0
 40
0.0
 41
1.0
 50
0.0
 71
     0
 42
2.5
  3
ITALIC.SHX
  4

  0
ENDTAB
  0
TABLE
  2
VIEW
  5
6
330
0
100
AcDbSymbolTable
 70
     0
  0
ENDTAB
  0
TABLE
  2
UCS
  5
7
330
0
100
AcDbSymbolTable
 70
     0
  0
ENDTAB
  0
TABLE
  2
APPID
  5
9
330
0
100
AcDbSymbolTable
 70
    25
  0
APPID
  5
56
330
9
100
AcDbSymbolTableRecord
100
AcDbRegAppTableRecord
  2
ACAD
 70
     0
  0
APPID
  5
5E
330
9
100
AcDbSymbolTableRecord
100
AcDbRegAppTableRecord
  2
AcadAnnotative
 70
     0
  0
APPID
  5
76
330
9
100
AcDbSymbolTableRecord
100
AcDbRegAppTableRecord
  2
ACAD_NAV_VCDISPLAY
 70
     0
  0
APPID
  5
7D
330
9
100
AcDbSymbolTableRecord
100
AcDbRegAppTableRecord
  2
MCAD_NO_VIS
 70
     0
  0
APPID
  5
7E
330
9
100
AcDbSymbolTableRecord
100
AcDbRegAppTableRecord
  2
ACAD_TEMP_GRAPHIC
 70
     0
  0
APPID
  5
8B
330
9
100
AcDbSymbolTableRecord
100
AcDbRegAppTableRecord
  2
ACATTRIBSERVICES
 70
     0
  0
APPID
  5
A3
330
9
100
AcDbSymbolTableRecord
100
AcDbRegAppTableRecord
  2
DESIGNERASSEMBLIES
 70
     0
  0
APPID
  5
B9
330
9
100
AcDbSymbolTableRecord
100
AcDbRegAppTableRecord
  2
ACAD_DSTYLE_DIMJAG
 70
     0
  0
APPID
  5
BA
330
9
100
AcDbSymbolTableRecord
100
AcDbRegAppTableRecord
  2
ACAD_DSTYLE_DIMBREAK
 70
     0
  0
APPID
  5
F2
330
9
100
AcDbSymbolTableRecord
100
AcDbRegAppTableRecord
  2
GENIUS_GENODEF_13
 70
     0
  0
APPID
  5
F3
330
9
100
AcDbSymbolTableRecord
100
AcDbRegAppTableRecord
  2
GENIUS_GENOBJ-N-FIL_13
 70
     0
  0
APPID
  5
F4
330
9
100
AcDbSymbolTableRecord
100
AcDbRegAppTableRecord
  2
GENIUS_GENOBJ-N-CEN_13
 70
     0
  0
APPID
  5
F5
330
9
100
AcDbSymbolTableRecord
100
AcDbRegAppTableRecord
  2
GENIUS_GENFIL_13
 70
     0
  0
APPID
  5
F6
330
9
100
AcDbSymbolTableRecord
100
AcDbRegAppTableRecord
  2
GENIUS_GENOBJ-N-CHA_13
 70
     0
  0
APPID
  5
F7
330
9
100
AcDbSymbolTableRecord
100
AcDbRegAppTableRecord
  2
ACAD_PSEXT
 70
     0
  0
APPID
  5
F8
330
9
100
AcDbSymbolTableRecord
100
AcDbRegAppTableRecord
  2
AD_DRAW
 70
     0
  0
APPID
  5
F9
330
9
100
AcDbSymbolTableRecord
100
AcDbRegAppTableRecord
  2
ACADM_DIM_EDIT
 70
     0
  0
APPID
  5
FA
330
9
100
AcDbSymbolTableRecord
100
AcDbRegAppTableRecord
  2
AMDT_DM_ADJ
 70
     0
  0
APPID
  5
7DE
330
9
100
AcDbSymbolTableRecord
100
AcDbRegAppTableRecord
  2
ACAD_EXEMPT_FROM_CAD_STANDARDS
 70
     0
  0
APPID
  5
877
330
9
100
AcDbSymbolTableRecord
100
AcDbRegAppTableRecord
  2
ACAD_DSTYLE_DIMJOGGED_JOGANGLE_SYMBOL
 70
     0
  0
APPID
  5
879
330
9
100
AcDbSymbolTableRecord
100
AcDbRegAppTableRecord
  2
ACAD_MLEADERVER
 70
     0
  0
APPID
  5
87A
330
9
100
AcDbSymbolTableRecord
100
AcDbRegAppTableRecord
  2
ACAD_DSTYLE_DIMARC_LENGTH_SYMBOL
 70
     0
  0
APPID
  5
87B
330
9
100
AcDbSymbolTableRecord
100
AcDbRegAppTableRecord
  2
ACAD_DSTYLE_DIM_LINETYPE
 70
     0
  0
APPID
  5
87C
330
9
100
AcDbSymbolTableRecord
100
AcDbRegAppTableRecord
  2
ACAD_DSTYLE_DIM_EXT1_LINETYPE
 70
     0
  0
APPID
  5
87D
330
9
100
AcDbSymbolTableRecord
100
AcDbRegAppTableRecord
  2
ACAD_DSTYLE_DIM_EXT2_LINETYPE
 70
     0
  0
ENDTAB
  0
TABLE
  2
DIMSTYLE
  5
A
330
0
100
AcDbSymbolTable
 70
     9
100
AcDbDimStyleTable
 71
     1
340
B8
  0
DIMSTYLE
105
58
330
A
100
AcDbSymbolTableRecord
100
AcDbDimStyleTableRecord
  2
ISO-25
 70
     0
 41
2.5
 42
0.625
 43
3.75
 44
1.25
 73
     0
 74
     0
 77
     1
 78
     8
140
2.5
141
2.5
143
0.03937007874016
147
0.625
171
     3
172
     1
271
     2
272
     2
274
     3
283
     0
284
     8
340
55
1001
ACAD_DSTYLE_DIMJOGGED_JOGANGLE_SYMBOL
1070
   384
1040
1.570796326794896
  0
DIMSTYLE
105
59
330
A
100
AcDbSymbolTableRecord
100
AcDbDimStyleTableRecord
  2
Annotative
 70
     0
340
55
1001
AcadAnnotative
1000
AnnotativeData
1002
{
1070
     1
1070
     1
1002
}
  0
DIMSTYLE
105
B8
102
{ACAD_REACTORS
330
A7
102
}
330
A
100
AcDbSymbolTableRecord
100
AcDbDimStyleTableRecord
  2
AM_ISO
 70
     0
  4
"
 41
3.5
 42
1.0
 43
10.0
 44
1.0
 47
0.1
 48
0.1
 73
     0
 74
     0
 77
     1
 78
     8
 79
     2
140
3.5
141
0.0
143
0.0393701
146
0.71
147
1.5
172
     1
176
   256
177
   256
178
     2
271
     2
272
     3
274
     4
283
     0
284
     8
340
55
371
    -1
372
    -1
1001
ACAD_DSTYLE_DIMJAG
1070
   388
1040
1.5
1001
ACAD_DSTYLE_DIMBREAK
1070
   391
1040
3.75
1001
ACAD_DSTYLE_DIMARC_LENGTH_SYMBOL
1070
   379
1070
     1
1001
ACAD_DSTYLE_DIM_LINETYPE
1070
   380
1005
5B
1001
ACAD_DSTYLE_DIM_EXT1_LINETYPE
1070
   381
1005
5B
1001
ACAD_DSTYLE_DIM_EXT2_LINETYPE
1070
   382
1005
5B
  0
DIMSTYLE
105
C5
330
A
100
AcDbSymbolTableRecord
100
AcDbDimStyleTableRecord
  2
AM_ISO$3
 70
     0
  4
"
 41
3.5
 42
1.0
 43
10.0
 44
1.0
 47
0.1
 48
0.1
 73
     0
 77
     1
 78
     8
 79
     2
140
3.5
141
0.0
143
0.0393701
146
0.71
147
1.5
176
   256
177
   256
178
     2
271
     2
272
     3
274
     4
283
     0
284
     8
288
     1
289
     0
340
55
371
    -1
372
    -1
1001
ACAD_DSTYLE_DIMBREAK
1070
   391
1040
3.75
1001
ACAD_DSTYLE_DIMJAG
1070
   388
1040
1.5
1001
ACAD_DSTYLE_DIMARC_LENGTH_SYMBOL
1070
   379
1070
     1
1001
ACAD_DSTYLE_DIM_LINETYPE
1070
   380
1005
5B
1001
ACAD_DSTYLE_DIM_EXT1_LINETYPE
1070
   381
1005
5B
1001
ACAD_DSTYLE_DIM_EXT2_LINETYPE
1070
   382
1005
5B
  0
DIMSTYLE
105
C6
330
A
100
AcDbSymbolTableRecord
100
AcDbDimStyleTableRecord
  2
AM_ISO$4
 70
     0
  4
"
 41
3.5
 42
1.0
 43
10.0
 44
1.0
 47
0.1
 48
0.1
 73
     0
 77
     1
 78
     8
 79
     2
140
3.5
141
0.0
143
0.0393701
146
0.71
147
1.5
176
   256
177
   256
178
     2
271
     2
272
     3
274
     4
283
     0
284
     8
288
     1
289
     0
340
55
371
    -1
372
    -1
1001
ACAD_DSTYLE_DIMBREAK
1070
   391
1040
3.75
1001
ACAD_DSTYLE_DIMJAG
1070
   388
1040
1.5
1001
ACAD_DSTYLE_DIMARC_LENGTH_SYMBOL
1070
   379
1070
     1
1001
ACAD_DSTYLE_DIM_LINETYPE
1070
   380
1005
5B
1001
ACAD_DSTYLE_DIM_EXT1_LINETYPE
1070
   381
1005
5B
1001
ACAD_DSTYLE_DIM_EXT2_LINETYPE
1070
   382
1005
5B
  0
DIMSTYLE
105
C7
330
A
100
AcDbSymbolTableRecord
100
AcDbDimStyleTableRecord
  2
AM_ISO$6
 70
     0
  4
"
 41
3.5
 42
1.0
 43
10.0
 44
1.0
 47
0.1
 48
0.1
 73
     0
 74
     0
 78
     8
 79
     2
140
3.5
141
0.0
143
0.0393701
146
0.71
147
1.5
172
     1
176
   256
177
   256
178
     2
271
     2
272
     3
274
     4
283
     0
284
     8
340
55
371
    -1
372
    -1
1001
ACAD_DSTYLE_DIMBREAK
1070
   391
1040
3.75
1001
ACAD_DSTYLE_DIMJAG
1070
   388
1040
1.5
1001
ACAD_DSTYLE_DIMARC_LENGTH_SYMBOL
1070
   379
1070
     1
1001
ACAD_DSTYLE_DIM_LINETYPE
1070
   380
1005
5B
1001
ACAD_DSTYLE_DIM_EXT1_LINETYPE
1070
   381
1005
5B
1001
ACAD_DSTYLE_DIM_EXT2_LINETYPE
1070
   382
1005
5B
  0
DIMSTYLE
105
C8
330
A
100
AcDbSymbolTableRecord
100
AcDbDimStyleTableRecord
  2
AM_ISO$7
 70
     0
  4
"
 41
3.5
 42
1.0
 43
10.0
 44
1.0
 47
0.1
 48
0.1
 73
     0
 74
     0
 77
     1
 78
     8
 79
     2
140
3.5
141
0.0
143
0.0393701
146
0.71
147
1.5
172
     1
176
   256
177
   256
178
     2
271
     2
272
     3
274
     4
283
     0
284
     8
340
55
371
    -1
372
    -1
1001
ACAD_DSTYLE_DIMBREAK
1070
   391
1040
3.75
1001
ACAD_DSTYLE_DIMJAG
1070
   388
1040
1.5
1001
ACAD_DSTYLE_DIMARC_LENGTH_SYMBOL
1070
   379
1070
     1
1001
ACAD_DSTYLE_DIM_LINETYPE
1070
   380
1005
5B
1001
ACAD_DSTYLE_DIM_EXT1_LINETYPE
1070
   381
1005
5B
1001
ACAD_DSTYLE_DIM_EXT2_LINETYPE
1070
   382
1005
5B
  0
DIMSTYLE
105
C9
330
A
100
AcDbSymbolTableRecord
100
AcDbDimStyleTableRecord
  2
AM_ISO$SF
 70
     0
  4
"
 41
3.5
 42
1.0
 43
10.0
 44
1.0
 47
0.1
 48
0.1
 73
     0
 74
     0
 75
     1
 76
     1
 77
     1
 78
     8
 79
     2
140
3.5
141
0.0
143
0.0393701
146
0.71
147
1.5
172
     1
176
   256
177
   256
178
     2
271
     2
272
     3
274
     4
283
     0
284
     8
340
55
371
    -1
372
    -1
1001
ACAD_DSTYLE_DIMBREAK
1070
   391
1040
3.75
1001
ACAD_DSTYLE_DIMJAG
1070
   388
1040
1.5
1001
ACAD_DSTYLE_DIMARC_LENGTH_SYMBOL
1070
   379
1070
     1
1001
ACAD_DSTYLE_DIM_LINETYPE
1070
   380
1005
5B
1001
ACAD_DSTYLE_DIM_EXT1_LINETYPE
1070
   381
1005
5B
1001
ACAD_DSTYLE_DIM_EXT2_LINETYPE
1070
   382
1005
5B
  0
DIMSTYLE
105
CE
330
A
100
AcDbSymbolTableRecord
100
AcDbDimStyleTableRecord
  2
AM_ISO$SH
 70
     0
  4
"
 41
3.5
 42
1.0
 43
10.0
 44
1.0
 47
0.1
 48
0.1
 73
     0
 74
     0
 75
     1
 76
     1
 77
     1
 78
     8
 79
     2
140
3.5
141
0.0
143
0.0393701
144
2.0
146
0.71
147
1.5
172
     1
173
     1
176
   256
177
   256
178
     2
271
     2
272
     3
274
     4
283
     0
284
     8
340
55
343
CA
371
    -1
372
    -1
1001
ACAD_DSTYLE_DIMBREAK
1070
   391
1040
3.75
1001
ACAD_DSTYLE_DIMJAG
1070
   388
1040
1.5
1001
ACAD_DSTYLE_DIMARC_LENGTH_SYMBOL
1070
   379
1070
     1
1001
ACAD_DSTYLE_DIM_LINETYPE
1070
   380
1005
5B
1001
ACAD_DSTYLE_DIM_EXT1_LINETYPE
1070
   381
1005
5B
1001
ACAD_DSTYLE_DIM_EXT2_LINETYPE
1070
   382
1005
5B
  0
ENDTAB
  0
TABLE
  2
BLOCK_RECORD
  5
1
330
0
100
AcDbSymbolTable
 70
     4
  0
BLOCK_RECORD
  5
6C
330
1
100
AcDbSymbolTableRecord
100
AcDbBlockTableRecord
  2
*Model_Space
340
6F
  0
BLOCK_RECORD
  5
68
330
1
100
AcDbSymbolTableRecord
100
AcDbBlockTableRecord
  2
*Paper_Space
340
6B
  0
BLOCK_RECORD
  5
70
330
1
100
AcDbSymbolTableRecord
100
AcDbBlockTableRecord
  2
*Paper_Space0
340
73
  0
BLOCK_RECORD
  5
CA
330
1
100
AcDbSymbolTableRecord
100
AcDbBlockTableRecord
  2
GENAXEH
340
0
  0
ENDTAB
  0
ENDSEC
  0
SECTION
  2
BLOCKS
  0
BLOCK
  5
6D
330
6C
100
AcDbEntity
  8
0
100
AcDbBlockBegin
  2
*Model_Space
 70
     0
 10
0.0
 20
0.0
 30
0.0
  3
*Model_Space
  1

  0
ENDBLK
  5
6E
330
6C
100
AcDbEntity
  8
0
100
AcDbBlockEnd
  0
BLOCK
  5
69
330
68
100
AcDbEntity
 67
     1
  8
0
100
AcDbBlockBegin
  2
*Paper_Space
 70
     0
 10
0.0
 20
0.0
 30
0.0
  3
*Paper_Space
  1

  0
ENDBLK
  5
6A
330
68
100
AcDbEntity
 67
     1
  8
0
100
AcDbBlockEnd
  0
BLOCK
  5
71
330
70
100
AcDbEntity
 67
     1
  8
0
100
AcDbBlockBegin
  2
*Paper_Space0
 70
     0
 10
0.0
 20
0.0
 30
0.0
  3
*Paper_Space0
  1

  0
ENDBLK
  5
72
330
70
100
AcDbEntity
 67
     1
  8
0
100
AcDbBlockEnd
  0
BLOCK
  5
CC
330
CA
100
AcDbEntity
  8
0
100
AcDbBlockBegin
  2
GENAXEH
 70
     0
 10
0.0
 20
0.0
 30
0.0
  3
GENAXEH
  1

  0
LINE
  5
CB
330
CA
100
AcDbEntity
  8
0
100
AcDbLine
 10
-1.0
 20
0.0
 30
0.0
 11
1.0
 21
0.0
 31
0.0
  0
ENDBLK
  5
CD
330
CA
100
AcDbEntity
  8
0
100
AcDbBlockEnd
  0
ENDSEC
  0
SECTION
  2
ENTITIES
  0
TEXT
  5
473
330
6C
100
AcDbEntity
  8
MOJI
  6
Continuous
 62
     3
100
AcDbText
 10
1000.0
 20
100.0000000000073
 30
0.0
 40
500.0
  1
%%C700 三面ポール型太陽電池電波時計
100
AcDbText
  0
LINE
  5
474
330
6C
100
AcDbEntity
  8
SUNPO
  6
Continuous
 62
     1
100
AcDbLine
 10
7319.158398711748
 20
-6298.498021081752
 30
0.0
 11
7319.158398711762
 21
-7136.887843232312
 31
0.0
  0
LINE
  5
475
330
6C
100
AcDbEntity
  8
SUNPO
  6
Continuous
 62
     1
100
AcDbLine
 10
7119.158398711909
 20
-6908.298004746088
 30
0.0
 11
7319.158398711909
 21
-6858.298004746088
 31
0.0
  0
LINE
  5
476
330
6C
100
AcDbEntity
  8
SUNPO
  6
Continuous
 62
     1
100
AcDbLine
 10
7719.158398711748
 20
-6298.498021081752
 30
0.0
 11
7719.158398711762
 21
-7136.887843232312
 31
0.0
  0
LINE
  5
477
330
6C
100
AcDbEntity
  8
SUNPO
  6
Continuous
 62
     1
100
AcDbLine
 10
7719.158398711676
 20
-6858.298004746146
 30
0.0
 11
7919.158398711676
 21
-6908.298004746146
 31
0.0
  0
LINE
  5
478
330
6C
100
AcDbEntity
  8
SUNPO
  6
Continuous
 62
     1
100
AcDbLine
 10
4783.972899053013
 20
-17085.93047057636
 30
0.0
 11
4783.972899053013
 21
-6085.930470576328
 31
0.0
  0
LINE
  5
479
330
6C
100
AcDbEntity
  8
0
  6
Continuous
 62
     3
100
AcDbLine
 10
8137.658398711748
 20
-5771.973240748943
 30
0.0
 11
8137.658398711748
 21
-19085.93047057635
 31
0.0
  0
LINE
  5
47A
330
6C
100
AcDbEntity
  8
0
  6
Continuous
 62
     3
100
AcDbLine
 10
8550.658398711748
 20
-6064.024072599241
 30
0.0
 11
8550.658398711748
 21
-19085.93047057635
 31
0.0
  0
LINE
  5
47B
330
6C
100
AcDbEntity
  8
0
  6
Continuous
 62
     3
100
AcDbLine
 10
1902.972899053027
 20
-6061.214393745547
 30
0.0
 11
1902.972899053027
 21
-14673.4304705763
 31
0.0
  0
LINE
  5
47C
330
6C
100
AcDbEntity
  8
0
  6
Continuous
 62
     3
100
AcDbLine
 10
2315.972899053027
 20
-6061.214393745547
 30
0.0
 11
2315.972899053027
 21
-14673.4304705763
 31
0.0
  0
LINE
  5
47D
330
6C
100
AcDbEntity
  8
0
  6
Continuous
 62
     3
100
AcDbLine
 10
2315.972899053027
 20
-15998.4304705763
 30
0.0
 11
2315.972899053027
 21
-17085.93047057633
 31
0.0
  0
LINE
  5
47E
330
6C
100
AcDbEntity
  8
0
  6
Continuous
 62
     3
100
AcDbLine
 10
1902.972899053027
 20
-15998.4304705763
 30
0.0
 11
1902.972899053027
 21
-17085.93047057633
 31
0.0
  0
LINE
  5
47F
330
6C
100
AcDbEntity
  8
SUNPO
  6
Continuous
 62
     1
100
AcDbLine
 10
4783.972899053043
 20
-17085.93047057641
 30
0.0
 11
4833.972899053042
 21
-16885.93047057641
 31
0.0
  0
LINE
  5
480
330
6C
100
AcDbEntity
  8
SUNPO
  6
Continuous
 62
     1
100
AcDbLine
 10
4733.972899053042
 20
-16885.93047057641
 30
0.0
 11
4783.972899053043
 21
-17085.93047057641
 31
0.0
  0
LINE
  5
481
330
6C
100
AcDbEntity
  8
0
  6
Continuous
 62
     1
100
AcDbLine
 10
2983.280249984047
 20
-19316.55251667886
 30
0.0
 11
3213.902296086555
 21
-19085.93047057635
 31
0.0
  0
LINE
  5
482
330
6C
100
AcDbEntity
  8
0
  6
Continuous
 62
     3
100
AcDbLine
 10
3484.472899053028
 20
-19335.93047057636
 30
0.0
 11
734.4728990530275
 21
-19335.93047057632
 31
0.0
  0
LINE
  5
483
330
6C
100
AcDbEntity
  8
SUNPO
  6
Continuous
 62
     1
100
AcDbLine
 10
734.4728990530275
 20
-20510.93047057636
 30
0.0
 11
3484.472899053028
 21
-20510.93047057633
 31
0.0
  0
LINE
  5
484
330
6C
100
AcDbEntity
  8
0
  6
Continuous
 62
     1
100
AcDbLine
 10
1870.399411684004
 20
-19085.93047057635
 30
0.0
 11
3484.472899053028
 21
-17471.85698320733
 31
0.0
  0
LINE
  5
485
330
6C
100
AcDbEntity
  8
0
  6
Continuous
 62
     1
100
AcDbLine
 10
1782.011064183359
 20
-19085.93047057635
 30
0.0
 11
3484.472899053028
 21
-17383.46863570753
 31
0.0
  0
LINE
  5
486
330
6C
100
AcDbEntity
  8
0
  6
Continuous
 62
     1
100
AcDbLine
 10
1340.069325793563
 20
-19085.93047057633
 30
0.0
 11
3340.06932579355
 21
-17085.93047057636
 31
0.0
  0
LINE
  5
487
330
6C
100
AcDbEntity
  8
0
  6
Continuous
 62
     1
100
AcDbLine
 10
1251.680978293705
 20
-19085.93047057633
 30
0.0
 11
3251.680978293691
 21
-17085.93047057636
 31
0.0
  0
LINE
  5
488
330
6C
100
AcDbEntity
  8
0
  6
Continuous
 62
     3
100
AcDbLine
 10
734.4728990530275
 20
-19085.93047057633
 30
0.0
 11
3484.472899053028
 21
-19085.93047057635
 31
0.0
  0
LINE
  5
489
330
6C
100
AcDbEntity
  8
0
  6
Continuous
 62
     7
100
AcDbLine
 10
859.4728990530274
 20
-17085.93047057636
 30
0.0
 11
3359.472899053028
 21
-17085.93047057636
 31
0.0
  0
LINE
  5
48A
330
6C
100
AcDbEntity
  8
0
  6
Continuous
 62
     1
100
AcDbLine
 10
2400.729497573732
 20
-19085.93047057633
 30
0.0
 11
3484.472899053028
 21
-18002.18706909706
 31
0.0
  0
LINE
  5
48B
330
6C
100
AcDbEntity
  8
0
  6
Continuous
 62
     1
100
AcDbLine
 10
2312.341150073873
 20
-19085.93047057635
 30
0.0
 11
3484.472899053028
 21
-17913.7987215972
 31
0.0
  0
LINE
  5
48C
330
6C
100
AcDbEntity
  8
0
  6
Continuous
 62
     1
100
AcDbLine
 10
2842.6712359636
 20
-19085.93047057635
 30
0.0
 11
3484.472899053028
 21
-18444.12880748693
 31
0.0
  0
LINE
  5
48D
330
6C
100
AcDbEntity
  8
0
  6
Continuous
 62
     1
100
AcDbLine
 10
2931.059583463473
 20
-19085.93047057633
 30
0.0
 11
3484.472899053028
 21
-18532.51715498679
 31
0.0
  0
LINE
  5
48E
330
6C
100
AcDbEntity
  8
0
  6
Continuous
 62
     2
100
AcDbLine
 10
2315.972899053027
 20
-16985.93047057635
 30
0.0
 11
3484.472899053028
 21
-17085.93047057636
 31
0.0
  0
LINE
  5
48F
330
6C
100
AcDbEntity
  8
0
  6
Continuous
 62
     3
100
AcDbLine
 10
734.4728990530275
 20
-19335.93047057636
 30
0.0
 11
734.4728990530275
 21
-17085.93047057636
 31
0.0
  0
LINE
  5
490
330
6C
100
AcDbEntity
  8
0
  6
Continuous
 62
     1
100
AcDbLine
 10
1286.223975136046
 20
-19316.55251667886
 30
0.0
 11
1516.846021238554
 21
-19085.93047057635
 31
0.0
  0
LINE
  5
491
330
6C
100
AcDbEntity
  8
0
  6
Continuous
 62
     1
100
AcDbLine
 10
1305.601929059732
 20
-19335.93047057636
 30
0.0
 11
1055.601929059732
 21
-19085.93047057635
 31
0.0
  0
LINE
  5
492
330
6C
100
AcDbEntity
  8
0
  6
Continuous
 62
     1
100
AcDbLine
 10
984.0033087638875
 20
-19335.93047057636
 30
0.0
 11
1144.802618899077
 21
-19175.13116044189
 31
0.0
  0
LINE
  5
493
330
6C
100
AcDbEntity
  8
0
  6
Continuous
 62
     1
100
AcDbLine
 10
3002.658203907005
 20
-19335.93047057636
 30
0.0
 11
2752.658203907005
 21
-19085.93047057635
 31
0.0
  0
LINE
  5
494
330
6C
100
AcDbEntity
  8
0
  6
Continuous
 62
     1
100
AcDbLine
 10
2115.374158662555
 20
-19335.93047057636
 30
0.0
 11
2276.173468797744
 21
-19175.13116044189
 31
0.0
  0
LINE
  5
495
330
6C
100
AcDbEntity
  8
0
  6
Continuous
 62
     1
100
AcDbLine
 10
1851.90940008538
 20
-19316.55251667886
 30
0.0
 11
2082.531446187888
 21
-19085.93047057635
 31
0.0
  0
LINE
  5
496
330
6C
100
AcDbEntity
  8
0
  6
Continuous
 62
     1
100
AcDbLine
 10
1871.287354008338
 20
-19335.93047057636
 30
0.0
 11
1621.287354008338
 21
-19085.93047057635
 31
0.0
  0
LINE
  5
497
330
6C
100
AcDbEntity
  8
0
  6
Continuous
 62
     1
100
AcDbLine
 10
1549.688733713221
 20
-19335.93047057636
 30
0.0
 11
1710.48804384841
 21
-19175.13116044189
 31
0.0
  0
LINE
  5
498
330
6C
100
AcDbEntity
  8
0
  6
Continuous
 62
     1
100
AcDbLine
 10
2436.972778957672
 20
-19335.93047057636
 30
0.0
 11
2186.972778957672
 21
-19085.93047057635
 31
0.0
  0
LINE
  5
499
330
6C
100
AcDbEntity
  8
0
  6
Continuous
 62
     1
100
AcDbLine
 10
2417.594825034714
 20
-19316.55251667886
 30
0.0
 11
2648.216871137222
 21
-19085.93047057635
 31
0.0
  0
LINE
  5
49A
330
6C
100
AcDbEntity
  8
0
  6
Continuous
 62
     3
100
AcDbLine
 10
2606.431840612597
 20
-19043.43464620667
 30
0.0
 11
2606.431840612597
 21
-19554.13935215089
 31
0.0
  0
LINE
  5
49B
330
6C
100
AcDbEntity
  8
0
  6
Continuous
 62
     3
100
AcDbLine
 10
2581.431840612597
 20
-19043.43464620667
 30
0.0
 11
2581.431840612597
 21
-19554.13935215089
 31
0.0
  0
LINE
  5
49C
330
6C
100
AcDbEntity
  8
0
  6
Continuous
 62
     1
100
AcDbLine
 10
2681.059583611888
 20
-19335.93047057636
 30
0.0
 11
2841.858893747078
 21
-19175.13116044189
 31
0.0
  0
LINE
  5
49D
330
6C
100
AcDbEntity
  8
0
  6
Continuous
 62
     1
100
AcDbLine
 10
734.4728990530275
 20
-19302.61816781255
 30
0.0
 11
951.1605962892208
 21
-19085.93047057635
 31
0.0
  0
TEXT
  5
49E
330
6C
100
AcDbEntity
  8
SUNPO
  6
Continuous
 62
     4
100
AcDbText
 10
1575.788023386452
 20
-20407.32049226399
 30
0.0
 40
300.0
  1
□1100
 72
     1
 11
2113.406133622673
 21
-20407.32049226399
 31
0.0
100
AcDbText
  0
LINE
  5
49F
330
6C
100
AcDbEntity
  8
SUNPO
  6
Continuous
 62
     1
100
AcDbLine
 10
734.4728990530275
 20
-19710.93047057635
 30
0.0
 11
734.4728990530275
 21
-20710.93047057636
 31
0.0
  0
LINE
  5
4A0
330
6C
100
AcDbEntity
  8
SUNPO
  6
Continuous
 62
     1
100
AcDbLine
 10
734.4728990530275
 20
-20510.93047057636
 30
0.0
 11
934.4728990530274
 21
-20460.93047057636
 31
0.0
  0
LINE
  5
4A1
330
6C
100
AcDbEntity
  8
SUNPO
  6
Continuous
 62
     1
100
AcDbLine
 10
934.4728990530274
 20
-20560.93047057636
 30
0.0
 11
734.4728990530275
 21
-20510.93047057636
 31
0.0
  0
LINE
  5
4A2
330
6C
100
AcDbEntity
  8
0
  6
Continuous
 62
     1
100
AcDbLine
 10
1022.759216585065
 20
-19335.93047057636
 30
0.0
 11
1003.381262674476
 21
-19316.55251666649
 31
0.0
  0
LINE
  5
4A3
330
6C
100
AcDbEntity
  8
0
  6
Continuous
 62
     1
100
AcDbLine
 10
739.9165041103988
 20
-19335.93047057636
 30
0.0
 11
734.4728990530275
 21
-19330.48686551899
 31
0.0
  0
LINE
  5
4A4
330
6C
100
AcDbEntity
  8
0
  6
Continuous
 62
     1
100
AcDbLine
 10
1588.444641534399
 20
-19335.93047057636
 30
0.0
 11
1569.06668762381
 21
-19316.55251666649
 31
0.0
  0
LINE
  5
4A5
330
6C
100
AcDbEntity
  8
0
  6
Continuous
 62
     1
100
AcDbLine
 10
2154.130066483005
 20
-19335.93047057636
 30
0.0
 11
2134.752112573144
 21
-19316.55251666649
 31
0.0
  0
LINE
  5
4A6
330
6C
100
AcDbEntity
  8
0
  6
Continuous
 62
     1
100
AcDbLine
 10
2719.815491432339
 20
-19335.93047057636
 30
0.0
 11
2700.437537522477
 21
-19316.55251666649
 31
0.0
  0
LINE
  5
4A7
330
6C
100
AcDbEntity
  8
0
  6
Continuous
 62
     3
100
AcDbLine
 10
2606.431840612597
 20
-19554.13935215089
 30
0.0
 11
2581.431840612597
 21
-19554.13935215089
 31
0.0
  0
LINE
  5
4A8
330
6C
100
AcDbEntity
  8
0
  6
Continuous
 62
     1
100
AcDbLine
 10
809.7392399038362
 20
-19085.93047057633
 30
0.0
 11
2809.739239903822
 21
-17085.93047057636
 31
0.0
  0
LINE
  5
4A9
330
6C
100
AcDbEntity
  8
0
  6
Continuous
 62
     1
100
AcDbLine
 10
734.4728990530275
 20
-19072.80846392729
 30
0.0
 11
2721.350892403963
 21
-17085.93047057636
 31
0.0
  0
LINE
  5
4AA
330
6C
100
AcDbEntity
  8
0
  6
Continuous
 62
     1
100
AcDbLine
 10
734.4728990530275
 20
-18630.86672553742
 30
0.0
 11
2279.409154014095
 21
-17085.93047057636
 31
0.0
  0
LINE
  5
4AB
330
6C
100
AcDbEntity
  8
0
  6
Continuous
 62
     1
100
AcDbLine
 10
734.4728990530275
 20
-18542.47837803756
 30
0.0
 11
2191.020806514236
 21
-17085.93047057636
 31
0.0
  0
LINE
  5
4AC
330
6C
100
AcDbEntity
  8
0
  6
Continuous
 62
     1
100
AcDbLine
 10
734.4728990530275
 20
-18100.5366396477
 30
0.0
 11
1749.079068124367
 21
-17085.93047057636
 31
0.0
  0
LINE
  5
4AD
330
6C
100
AcDbEntity
  8
0
  6
Continuous
 62
     1
100
AcDbLine
 10
734.4728990530275
 20
-18012.14829214795
 30
0.0
 11
1660.690720623781
 21
-17085.93047057636
 31
0.0
  0
LINE
  5
4AE
330
6C
100
AcDbEntity
  8
0
  6
Continuous
 62
     2
100
AcDbLine
 10
734.4728990530275
 20
-17085.93047057636
 30
0.0
 11
1902.972899053027
 21
-16985.93047057635
 31
0.0
  0
LINE
  5
4AF
330
6C
100
AcDbEntity
  8
0
  6
Continuous
 62
     1
100
AcDbLine
 10
861.9599064367793
 20
-19175.1311604288
 30
0.0
 11
772.7592165850656
 21
-19085.93047057635
 31
0.0
  0
LINE
  5
4B0
330
6C
100
AcDbEntity
  8
0
  6
Continuous
 62
     1
100
AcDbLine
 10
1427.645331386113
 20
-19175.1311604288
 30
0.0
 11
1338.444641534399
 21
-19085.93047057635
 31
0.0
  0
LINE
  5
4B1
330
6C
100
AcDbEntity
  8
0
  6
Continuous
 62
     7
100
AcDbLine
 10
859.4728990530274
 20
-17085.93047057636
 30
0.0
 11
234.9728990530275
 21
-17085.93047057636
 31
0.0
  0
LINE
  5
4B2
330
6C
100
AcDbEntity
  8
0
  6
Continuous
 62
     1
100
AcDbLine
 10
734.4728990530275
 20
-17570.2065537582
 30
0.0
 11
1218.748982233912
 21
-17085.93047057636
 31
0.0
  0
LINE
  5
4B3
330
6C
100
AcDbEntity
  8
0
  6
Continuous
 62
     1
100
AcDbLine
 10
734.4728990530275
 20
-17481.81820625843
 30
0.0
 11
1130.360634734054
 21
-17085.93047057636
 31
0.0
  0
LINE
  5
4B4
330
6C
100
AcDbEntity
  8
0
  6
L20
 62
     2
100
AcDbLine
 10
1902.972899053027
 20
-17085.93047057636
 30
0.0
 11
1902.972899053027
 21
-19085.93047057633
 31
0.0
  0
LINE
  5
4B5
330
6C
100
AcDbEntity
  8
0
  6
L20
 62
     2
100
AcDbLine
 10
2315.972899053027
 20
-17085.93047057636
 30
0.0
 11
2315.972899053027
 21
-19085.93047057635
 31
0.0
  0
LINE
  5
4B6
330
6C
100
AcDbEntity
  8
0
  6
Continuous
 62
     1
100
AcDbLine
 10
2340.320133468733
 20
-18568.95019414348
 30
0.0
 11
2365.681277539945
 21
-18619.65845619613
 31
0.0
  0
LWPOLYLINE
  5
4B7
330
6C
100
AcDbEntity
  8
0
  6
Continuous
 62
     3
100
AcDbPolyline
 90
        2
 70
     1
 43
25.0
 10
2096.972899053028
 20
-18460.93047057635
 42
1.0
 10
2121.972899053027
 20
-18460.93047057635
 42
1.0
  0
LINE
  5
4B8
330
6C
100
AcDbEntity
  8
0
  6
Continuous
 62
     1
100
AcDbLine
 10
1993.330756335446
 20
-19175.1311604288
 30
0.0
 11
1904.130066483005
 21
-19085.93047057635
 31
0.0
  0
LINE
  5
4B9
330
6C
100
AcDbEntity
  8
0
  6
Continuous
 62
     1
100
AcDbLine
 10
2109.472899053027
 20
-18460.93047057635
 30
0.0
 11
2202.645199120845
 21
-18550.8401005534
 31
0.0
  0
LINE
  5
4BA
330
6C
100
AcDbEntity
  8
0
  6
Continuous
 62
     1
100
AcDbLine
 10
2202.645199120845
 20
-18550.8401005534
 30
0.0
 11
2340.320133468733
 21
-18568.95019414348
 31
0.0
  0
LINE
  5
4BB
330
6C
100
AcDbEntity
  8
0
  6
Continuous
 62
     1
100
AcDbLine
 10
2463.502960115104
 20
-18760.91718619988
 30
0.0
 11
2481.618050336649
 21
-18855.08967286857
 31
0.0
  0
LINE
  5
4BC
330
6C
100
AcDbEntity
  8
0
  6
Continuous
 62
     1
100
AcDbLine
 10
2521.47130210865
 20
-18942.01812210137
 30
0.0
 11
2579.439732911807
 21
-18992.72638415402
 31
0.0
  0
LINE
  5
4BD
330
6C
100
AcDbEntity
  8
0
  6
Continuous
 62
     1
100
AcDbLine
 10
2481.618050336649
 20
-18855.08967286857
 30
0.0
 11
2521.47130210865
 21
-18942.01812210137
 31
0.0
  0
LINE
  5
4BE
330
6C
100
AcDbEntity
  8
0
  6
Continuous
 62
     1
100
AcDbLine
 10
2579.439732911807
 20
-18992.72638415402
 30
0.0
 11
2593.931840612597
 21
-19043.43464620667
 31
0.0
  0
LINE
  5
4BF
330
6C
100
AcDbEntity
  8
0
  6
Continuous
 62
     3
100
AcDbLine
 10
2581.431840612597
 20
-19043.43464620667
 30
0.0
 11
2606.431840612597
 21
-19043.43464620667
 31
0.0
  0
LINE
  5
4C0
330
6C
100
AcDbEntity
  8
0
  6
Continuous
 62
     1
100
AcDbLine
 10
2559.01618128478
 20
-19175.1311604288
 30
0.0
 11
2469.815491432339
 21
-19085.93047057635
 31
0.0
  0
LINE
  5
4C1
330
6C
100
AcDbEntity
  8
0
  6
Continuous
 62
     1
100
AcDbLine
 10
2365.681277539945
 20
-18619.65845619613
 30
0.0
 11
2398.288475462279
 21
-18677.61075568466
 31
0.0
  0
LINE
  5
4C2
330
6C
100
AcDbEntity
  8
0
  6
Continuous
 62
     1
100
AcDbLine
 10
2398.288475462279
 20
-18677.61075568466
 30
0.0
 11
2463.502960115104
 21
-18760.91718619988
 31
0.0
  0
LINE
  5
4C3
330
6C
100
AcDbEntity
  8
0
  6
Continuous
 62
     1
100
AcDbLine
 10
3124.701606234113
 20
-19175.1311604288
 30
0.0
 11
3035.500916381672
 21
-19085.93047057635
 31
0.0
  0
LINE
  5
4C4
330
6C
100
AcDbEntity
  8
0
  6
Continuous
 62
     2
100
AcDbLine
 10
1902.972899053027
 20
-16985.93047057635
 30
0.0
 11
2315.972899053027
 21
-16985.93047057635
 31
0.0
  0
LINE
  5
4C5
330
6C
100
AcDbEntity
  8
0
  6
Continuous
 62
     3
100
AcDbLine
 10
3484.472899053028
 20
-17085.93047057636
 30
0.0
 11
3484.472899053028
 21
-19335.93047057636
 31
0.0
  0
LINE
  5
4C6
330
6C
100
AcDbEntity
  8
0
  6
Continuous
 62
     1
100
AcDbLine
 10
3246.745008561222
 20
-19335.93047057636
 30
0.0
 11
3407.544318696412
 21
-19175.13116044189
 31
0.0
  0
LINE
  5
4C7
330
6C
100
AcDbEntity
  8
0
  6
Continuous
 62
     1
100
AcDbLine
 10
3484.472899053028
 20
-19252.05974077302
 30
0.0
 11
3318.343628856339
 21
-19085.93047057635
 31
0.0
  0
LINE
  5
4C8
330
6C
100
AcDbEntity
  8
SUNPO
  6
Continuous
 62
     1
100
AcDbLine
 10
4783.972899053013
 20
-19335.93047057624
 30
0.0
 11
4783.972899053013
 21
-17085.93047057641
 31
0.0
  0
LINE
  5
4C9
330
6C
100
AcDbEntity
  8
SUNPO
  6
Continuous
 62
     1
100
AcDbLine
 10
4783.972899053043
 20
-19335.93047057624
 30
0.0
 11
4833.972899053042
 21
-19135.93047057624
 31
0.0
  0
LINE
  5
4CA
330
6C
100
AcDbEntity
  8
SUNPO
  6
Continuous
 62
     1
100
AcDbLine
 10
4733.972899053042
 20
-19135.93047057624
 30
0.0
 11
4783.972899053043
 21
-19335.93047057624
 31
0.0
  0
LINE
  5
4CB
330
6C
100
AcDbEntity
  8
SUNPO
  6
Continuous
 62
     1
100
AcDbLine
 10
3983.972899053043
 20
-19335.93047057624
 30
0.0
 11
4983.972899053043
 21
-19335.93047057624
 31
0.0
  0
LINE
  5
4CC
330
6C
100
AcDbEntity
  8
SUNPO
  6
Continuous
 62
     1
100
AcDbLine
 10
3484.472899053028
 20
-19710.93047057635
 30
0.0
 11
3484.472899053028
 21
-20710.93047057636
 31
0.0
  0
LINE
  5
4CD
330
6C
100
AcDbEntity
  8
SUNPO
  6
Continuous
 62
     1
100
AcDbLine
 10
3284.472899053028
 20
-20460.93047057636
 30
0.0
 11
3484.472899053028
 21
-20510.93047057636
 31
0.0
  0
LINE
  5
4CE
330
6C
100
AcDbEntity
  8
SUNPO
  6
Continuous
 62
     1
100
AcDbLine
 10
3484.472899053028
 20
-20510.93047057636
 30
0.0
 11
3284.472899053028
 21
-20560.93047057636
 31
0.0
  0
LINE
  5
4CF
330
6C
100
AcDbEntity
  8
0
  6
Continuous
 62
     1
100
AcDbLine
 10
3285.500916381673
 20
-19335.93047057636
 30
0.0
 11
3266.122962471811
 21
-19316.55251666649
 31
0.0
  0
LINE
  5
4D0
330
6C
100
AcDbEntity
  8
SUNPO
  6
Continuous
 62
     1
100
AcDbLine
 10
3983.972899053043
 20
-17085.93047057641
 30
0.0
 11
4983.972899053043
 21
-17085.93047057641
 31
0.0
  0
LINE
  5
4D1
330
6C
100
AcDbEntity
  8
SUNPO
  6
Continuous
 62
     1
100
AcDbLine
 10
4833.972899052984
 20
-17285.93047057641
 30
0.0
 11
4783.972899052984
 21
-17085.93047057641
 31
0.0
  0
TEXT
  5
4D2
330
6C
100
AcDbEntity
  8
SUNPO
  6
Continuous
 62
     4
100
AcDbText
 10
4683.972899053013
 20
-18520.86753725252
 30
0.0
 40
300.0
  1
900
 50
90.0
 72
     1
 11
4683.972899053013
 21
-18210.91433130361
 31
0.0
100
AcDbText
 73
     1
  0
LINE
  5
4D3
330
6C
100
AcDbEntity
  8
0
  6
Continuous
 62
     1
100
AcDbLine
 10
3373.001321853328
 20
-19085.93047057635
 30
0.0
 11
3484.472899053028
 21
-18974.45889337666
 31
0.0
  0
LINE
  5
4D4
330
6C
100
AcDbEntity
  8
0
  6
Continuous
 62
     1
100
AcDbLine
 10
3461.389669353172
 20
-19085.93047057635
 30
0.0
 11
3484.472899053028
 21
-19062.84724087651
 31
0.0
  0
LINE
  5
4D5
330
6C
100
AcDbEntity
  8
0
  6
Continuous
 62
     7
100
AcDbLine
 10
3983.972899053043
 20
-17085.93047057636
 30
0.0
 11
3359.472899053028
 21
-17085.93047057636
 31
0.0
  0
LINE
  5
4D6
330
6C
100
AcDbEntity
  8
SUNPO
  6
Continuous
 62
     1
100
AcDbLine
 10
4783.972899052984
 20
-17085.93047057641
 30
0.0
 11
4733.972899052984
 21
-17285.93047057641
 31
0.0
  0
TEXT
  5
4D7
330
6C
100
AcDbEntity
  8
0
  6
Continuous
 62
     4
100
AcDbText
 10
9550.658398711748
 20
-17085.93047057636
 30
0.0
 40
250.0
  1
 GL
 11
9550.658398711748
 21
-16960.93047057636
 31
0.0
100
AcDbText
 73
     2
  0
LINE
  5
4D8
330
6C
100
AcDbEntity
  8
0
  6
Continuous
 62
     7
100
AcDbLine
 10
7137.658398711749
 20
-17085.93047057636
 30
0.0
 11
8137.658398711748
 21
-17085.93047057636
 31
0.0
  0
LINE
  5
4D9
330
6C
100
AcDbEntity
  8
0
  6
Continuous
 62
     3
100
AcDbLine
 10
8137.658398711748
 20
-19085.93047057635
 30
0.0
 11
8550.658398711764
 21
-19085.93047057635
 31
0.0
  0
LINE
  5
4DA
330
6C
100
AcDbEntity
  8
0
  6
Continuous
 62
     7
100
AcDbLine
 10
8550.658398711748
 20
-17085.93047057636
 30
0.0
 11
9550.658398711748
 21
-17085.93047057636
 31
0.0
  0
LINE
  5
4DB
330
6C
100
AcDbEntity
  8
SUNPO
  6
Continuous
 62
     1
100
AcDbLine
 10
2849.813468235472
 20
-14033.08990139464
 30
0.0
 11
3863.065173192648
 21
-14033.08990139464
 31
0.0
  0
TEXT
  5
4DC
330
6C
100
AcDbEntity
  8
SUNPO
  6
Continuous
 62
     4
100
AcDbText
 10
2949.813468235472
 20
-14033.08990139464
 30
0.0
 40
250.0
  1
制御部
 11
2949.813468235472
 21
-14033.08990139464
 31
0.0
100
AcDbText
 73
     1
  0
LINE
  5
4DD
330
6C
100
AcDbEntity
  8
SUNPO
  6
Continuous
 62
     1
100
AcDbLine
 10
2109.472899053027
 20
-14773.43047057636
 30
0.0
 11
2849.813468235472
 21
-14033.08990139464
 31
0.0
  0
LINE
  5
4DE
330
6C
100
AcDbEntity
  8
SUNPO
  6
Continuous
 62
     1
100
AcDbLine
 10
2215.538916231118
 20
-14596.65377527978
 30
0.0
 11
2109.472899053027
 21
-14773.43047057636
 31
0.0
  0
LINE
  5
4DF
330
6C
100
AcDbEntity
  8
4
100
AcDbLine
 10
1890.472899053042
 20
-15998.4304705763
 30
0.0
 11
1890.472899053042
 21
-14673.4304705763
 31
0.0
  0
LINE
  5
4E0
330
6C
100
AcDbEntity
  8
4
100
AcDbLine
 10
2328.472899053013
 20
-15998.4304705763
 30
0.0
 11
2328.472899053013
 21
-14673.4304705763
 31
0.0
  0
LINE
  5
4E1
330
6C
100
AcDbEntity
  8
4
100
AcDbLine
 10
1890.472899053042
 20
-15998.4304705763
 30
0.0
 11
2328.472899053013
 21
-15998.4304705763
 31
0.0
  0
LINE
  5
4E2
330
6C
100
AcDbEntity
  8
4
100
AcDbLine
 10
1890.472899053042
 20
-14673.4304705763
 30
0.0
 11
2328.472899053013
 21
-14673.4304705763
 31
0.0
  0
LINE
  5
4E3
330
6C
100
AcDbEntity
  8
SUNPO
  6
Continuous
 62
     1
100
AcDbLine
 10
2109.472899053027
 20
-14773.43047057636
 30
0.0
 11
2286.249594349603
 21
-14667.36445339826
 31
0.0
  0
TEXT
  5
4E4
330
6C
100
AcDbEntity
  8
SUNPO
  6
Continuous
 62
     4
100
AcDbText
 10
4683.972899053013
 20
-12036.03244153986
 30
0.0
 40
300.0
  1
4400
 50
90.0
 72
     1
 11
4683.972899053013
 21
-11585.91433130364
 31
0.0
100
AcDbText
 73
     1
  0
LINE
  5
4E5
330
6C
100
AcDbEntity
  8
4
100
AcDbLine
 10
8294.158398711749
 20
-14673.43047057636
 30
0.0
 11
8294.158398711749
 21
-15998.43047057635
 31
0.0
  0
LINE
  5
4E6
330
6C
100
AcDbEntity
  8
4
100
AcDbLine
 10
8137.658398711748
 20
-15998.43047057635
 30
0.0
 11
8294.158398711749
 21
-15998.43047057635
 31
0.0
  0
LINE
  5
4E7
330
6C
100
AcDbEntity
  8
4
100
AcDbLine
 10
8137.658398711748
 20
-14673.43047057636
 30
0.0
 11
8294.158398711749
 21
-14673.43047057636
 31
0.0
  0
LINE
  5
4E8
330
6C
100
AcDbEntity
  8
SUNPO
  6
Continuous
 62
     1
100
AcDbLine
 10
6335.195440830168
 20
-6858.298004746146
 30
0.0
 11
8085.195440829993
 21
-6858.298004746146
 31
0.0
  0
TEXT
  5
4E9
330
6C
100
AcDbEntity
  8
SUNPO
  6
Continuous
 62
     4
100
AcDbText
 10
6446.429620887091
 20
-6758.298004746146
 30
0.0
 40
300.0
  1
160
 72
     1
 11
6731.547731123312
 21
-6758.298004746146
 31
0.0
100
AcDbText
 73
     1
  0
ELLIPSE
  5
4EA
330
6C
100
AcDbEntity
  8
4
100
AcDbEllipse
 10
2802.292906907024
 20
-5210.930470576357
 30
0.0
 11
0.0000000000000513
 21
837.5
 31
0.0
210
0.0
220
0.0
230
1.0
 40
0.5
 41
2.752403394585662
 42
6.670259246483684
  0
ELLIPSE
  5
4EB
330
6C
100
AcDbEntity
  8
4
100
AcDbEllipse
 10
2802.292906907024
 20
-5210.930470576357
 30
0.0
 11
0.0000000000000536
 21
875.0
 31
0.0
210
0.0
220
0.0
230
1.0
 40
0.5
 41
2.653989955122377
 42
6.771751707155335
  0
ELLIPSE
  5
4EC
330
6C
100
AcDbEntity
  8
4
100
AcDbEllipse
 10
2975.497906907025
 20
-5210.930470576357
 30
0.0
 11
0.0000000000000536
 21
875.0
 31
0.0
210
0.0
220
0.0
230
1.0
 40
0.4928571428571429
 41
3.141592653589793
 42
6.283185307179586
  0
LINE
  5
4ED
330
6C
100
AcDbEntity
  8
0
  6
Continuous
 62
     1
100
AcDbLine
 10
1983.072906907008
 20
-5296.655470576333
 30
0.0
 11
2023.747906907025
 21
-5337.330470576322
 31
0.0
  0
LINE
  5
4EE
330
6C
100
AcDbEntity
  8
0
  6
Continuous
 62
     1
100
AcDbLine
 10
2023.747906907025
 20
-5337.330470576322
 30
0.0
 11
2655.722906907031
 21
-4682.380470576339
 31
0.0
  0
ELLIPSE
  5
4EF
330
6C
100
AcDbEntity
  8
4
100
AcDbEllipse
 10
1243.447906907022
 20
-5210.930470576357
 30
0.0
 11
0.0000000000000536
 21
875.0
 31
0.0
210
0.0
220
0.0
230
1.0
 40
0.4928571428571429
 41
0.0
 42
3.141592653589793
  0
ELLIPSE
  5
4F0
330
6C
100
AcDbEntity
  8
4
100
AcDbEllipse
 10
1416.652906907024
 20
-5210.930470576357
 30
0.0
 11
0.0000000000000513
 21
837.5
 31
0.0
210
0.0
220
0.0
230
1.0
 40
0.5
 41
0.3196949849060902
 42
3.530781912593923
  0
ELLIPSE
  5
4F1
330
6C
100
AcDbEntity
  8
4
100
AcDbEllipse
 10
1416.652906907024
 20
-5210.930470576357
 30
0.0
 11
0.0000000000000536
 21
875.0
 31
0.0
210
0.0
220
0.0
230
1.0
 40
0.5
 41
0.3385959353147943
 42
3.629195352057207
  0
ELLIPSE
  5
4F2
330
6C
100
AcDbEntity
  8
4
100
AcDbEllipse
 10
2629.087906907022
 20
-5210.930470576357
 30
0.0
 11
0.0000000000000475
 21
775.0
 31
0.0
210
0.0
220
0.0
230
1.0
 40
0.5
 41
2.924788610183077
 42
6.489682049971096
  0
CIRCLE
  5
4F3
330
6C
100
AcDbEntity
  8
4
100
AcDbCircle
 10
2109.472906907002
 20
-5210.930470576328
 30
0.0
 40
812.5
  0
CIRCLE
  5
4F4
330
6C
100
AcDbEntity
  8
4
100
AcDbCircle
 10
2109.472906907002
 20
-5210.930470576328
 30
0.0
 40
862.5
  0
CIRCLE
  5
4F5
330
6C
100
AcDbEntity
  8
4
100
AcDbCircle
 10
2109.472906907002
 20
-5210.930470576328
 30
0.0
 40
875.0
  0
ELLIPSE
  5
4F6
330
6C
100
AcDbEntity
  8
4
100
AcDbEllipse
 10
1589.857906907011
 20
-5210.930470576357
 30
0.0
 11
0.0000000000000475
 21
775.0
 31
0.0
210
0.0
220
0.0
230
1.0
 40
0.5
 41
6.076688564388075
 42
9.631716297474765
  0
ARC
  5
4F7
330
6C
100
AcDbEntity
  8
0
  6
Continuous
 62
     1
100
AcDbCircle
 10
1540.172906907013
 20
-5536.255470576397
 30
0.0
 40
16.825
100
AcDbArc
 50
107.0403832051177
 51
252.9596167948823
  0
ARC
  5
4F8
330
6C
100
AcDbEntity
  8
0
  6
Continuous
 62
     1
100
AcDbCircle
 10
1576.62290690701
 20
-5585.780470576391
 30
0.0
 40
161.7
100
AcDbArc
 50
68.99493098627171
 51
111.0050690137283
  0
ARC
  5
4F9
330
6C
100
AcDbEntity
  8
0
  6
Continuous
 62
     1
100
AcDbCircle
 10
1576.62290690701
 20
-5453.58047057638
 30
0.0
 40
138.775
100
AcDbArc
 50
238.5992847134172
 51
301.4007152865828
  0
CIRCLE
  5
4FA
330
6C
100
AcDbEntity
  8
0
  6
Continuous
 62
     1
100
AcDbCircle
 10
1495.74790690701
 20
-5657.180470576386
 30
0.0
 40
7.0
  0
CIRCLE
  5
4FB
330
6C
100
AcDbEntity
  8
0
  6
Continuous
 62
     1
100
AcDbCircle
 10
1416.547906907013
 20
-5519.830470576409
 30
0.0
 40
7.0
  0
CIRCLE
  5
4FC
330
6C
100
AcDbEntity
  8
0
  6
Continuous
 62
     1
100
AcDbCircle
 10
1367.522906907019
 20
-5369.155470576362
 30
0.0
 40
7.0
  0
CIRCLE
  5
4FD
330
6C
100
AcDbEntity
  8
0
  6
Continuous
 62
     1
100
AcDbCircle
 10
1388.047906907013
 20
-5445.830470576351
 30
0.0
 40
7.0
  0
ARC
  5
4FE
330
6C
100
AcDbEntity
  8
0
  6
Continuous
 62
     1
100
AcDbCircle
 10
1526.147906907019
 20
-5536.255470576397
 30
0.0
 40
42.075
100
AcDbArc
 50
113.5923082431039
 51
238.6092384183515
  0
CIRCLE
  5
4FF
330
6C
100
AcDbEntity
  8
0
  6
Continuous
 62
     1
100
AcDbCircle
 10
1453.047906907013
 20
-5590.280470576391
 30
0.0
 40
11.225
  0
ARC
  5
500
330
6C
100
AcDbEntity
  8
0
  6
Continuous
 62
     1
100
AcDbCircle
 10
1531.747906907025
 20
-5468.95547057641
 30
0.0
 40
36.45
100
AcDbArc
 50
110.9783764623416
 51
232.0699176477767
  0
LINE
  5
501
330
6C
100
AcDbEntity
  8
4
100
AcDbLine
 10
1243.447906907022
 20
-6085.930470576328
 30
0.0
 11
1416.652906907024
 21
-6085.930470576328
 31
0.0
  0
CIRCLE
  5
502
330
6C
100
AcDbEntity
  8
0
  6
Continuous
 62
     1
100
AcDbCircle
 10
2343.497906907025
 20
-5932.58047057638
 30
0.0
 40
7.0
  0
ARC
  5
503
330
6C
100
AcDbEntity
  8
0
  6
Continuous
 62
     1
100
AcDbCircle
 10
2115.422906907014
 20
-5947.505470576398
 30
0.0
 40
169.55
100
AcDbArc
 50
64.65543148102312
 51
96.96890886410365
  0
ARC
  5
504
330
6C
100
AcDbEntity
  8
0
  6
Continuous
 62
     1
100
AcDbCircle
 10
2101.397906907019
 20
-5968.155470576334
 30
0.0
 40
224.35
100
AcDbArc
 50
62.55275433600154
 51
91.28976732793075
  0
LINE
  5
505
330
6C
100
AcDbEntity
  8
0
  6
Continuous
 62
     1
100
AcDbLine
 10
2187.997906907025
 20
-5794.280470576392
 30
0.0
 11
2204.822906907022
 21
-5769.030470576334
 31
0.0
  0
LINE
  5
506
330
6C
100
AcDbEntity
  8
0
  6
Continuous
 62
     1
100
AcDbLine
 10
1722.447906907007
 20
-5659.655470576334
 30
0.0
 11
1896.347906907031
 21
-5659.655470576334
 31
0.0
  0
LINE
  5
507
330
6C
100
AcDbEntity
  8
0
  6
Continuous
 62
     1
100
AcDbLine
 10
1761.722906907016
 20
-5816.705470576409
 30
0.0
 11
1851.472906907016
 21
-5690.50547057634
 31
0.0
  0
LINE
  5
508
330
6C
100
AcDbEntity
  8
0
  6
Continuous
 62
     1
100
AcDbLine
 10
1761.722906907016
 20
-5816.705470576409
 30
0.0
 11
1806.597906907031
 21
-5816.705470576409
 31
0.0
  0
LINE
  5
509
330
6C
100
AcDbEntity
  8
0
  6
Continuous
 62
     1
100
AcDbLine
 10
1722.447906907007
 20
-5690.50547057634
 30
0.0
 11
1851.472906907016
 21
-5690.50547057634
 31
0.0
  0
CIRCLE
  5
50A
330
6C
100
AcDbEntity
  8
0
  6
Continuous
 62
     1
100
AcDbCircle
 10
1601.797906907013
 20
-5774.980470576374
 30
0.0
 40
7.0
  0
CIRCLE
  5
50B
330
6C
100
AcDbEntity
  8
0
  6
Continuous
 62
     1
100
AcDbCircle
 10
1545.722906907031
 20
-5718.830470576381
 30
0.0
 40
7.0
  0
LINE
  5
50C
330
6C
100
AcDbEntity
  8
0
  6
Continuous
 62
     1
100
AcDbLine
 10
1722.447906907007
 20
-5690.50547057634
 30
0.0
 11
1722.447906907007
 21
-5659.655470576334
 31
0.0
  0
CIRCLE
  5
50D
330
6C
100
AcDbEntity
  8
0
  6
Continuous
 62
     1
100
AcDbCircle
 10
1663.49790690701
 20
-5824.830470576323
 30
0.0
 40
7.0
  0
LINE
  5
50E
330
6C
100
AcDbEntity
  8
0
  6
Continuous
 62
     1
100
AcDbLine
 10
1896.347906907031
 20
-5690.50547057634
 30
0.0
 11
1896.347906907031
 21
-5659.655470576334
 31
0.0
  0
LINE
  5
50F
330
6C
100
AcDbEntity
  8
0
  6
Continuous
 62
     1
100
AcDbLine
 10
1806.597906907031
 20
-5816.705470576409
 30
0.0
 11
1896.347906907031
 21
-5690.50547057634
 31
0.0
  0
ARC
  5
510
330
6C
100
AcDbEntity
  8
0
  6
Continuous
 62
     1
100
AcDbCircle
 10
1542.972906907016
 20
-5468.95547057641
 30
0.0
 40
11.225
100
AcDbArc
 50
108.6359858209287
 51
251.3232982678321
  0
ARC
  5
511
330
6C
100
AcDbEntity
  8
0
  6
Continuous
 62
     1
100
AcDbCircle
 10
1627.097906907016
 20
-5536.255470576397
 30
0.0
 40
42.075
100
AcDbArc
 50
301.3907615816485
 51
66.40769175689607
  0
ARC
  5
512
330
6C
100
AcDbEntity
  8
0
  6
Continuous
 62
     1
100
AcDbCircle
 10
1621.497906907025
 20
-5468.95547057641
 30
0.0
 40
36.45
100
AcDbArc
 50
307.9300823522232
 51
69.02162353765831
  0
ARC
  5
513
330
6C
100
AcDbEntity
  8
0
  6
Continuous
 62
     1
100
AcDbCircle
 10
1610.272906907004
 20
-5468.95547057641
 30
0.0
 40
11.225
100
AcDbArc
 50
288.6767017321679
 51
71.36401417907132
  0
ARC
  5
514
330
6C
100
AcDbEntity
  8
0
  6
Continuous
 62
     1
100
AcDbCircle
 10
1613.072906907007
 20
-5536.255470576397
 30
0.0
 40
16.825
100
AcDbArc
 50
287.0403832051177
 51
72.95961679488231
  0
ARC
  5
515
330
6C
100
AcDbEntity
  8
0
  6
Continuous
 62
     1
100
AcDbCircle
 10
1576.62290690701
 20
-5655.005470576398
 30
0.0
 40
141.175
100
AcDbArc
 50
72.93906443269434
 51
107.0609355673056
  0
ARC
  5
516
330
6C
100
AcDbEntity
  8
0
  6
Continuous
 62
     1
100
AcDbCircle
 10
1576.62290690701
 20
-5417.505470576397
 30
0.0
 40
141.175
100
AcDbArc
 50
252.9390644326944
 51
287.0609355673057
  0
ARC
  5
517
330
6C
100
AcDbEntity
  8
0
  6
Continuous
 62
     1
100
AcDbCircle
 10
1576.62290690701
 20
-5568.280470576363
 30
0.0
 40
116.175
100
AcDbArc
 50
71.29203046890293
 51
108.707969531097
  0
ARC
  5
518
330
6C
100
AcDbEntity
  8
0
  6
Continuous
 62
     1
100
AcDbCircle
 10
1576.62290690701
 20
-5369.605470576374
 30
0.0
 40
116.175
100
AcDbArc
 50
251.2920304689029
 51
288.7079695310971
  0
LINE
  5
519
330
6C
100
AcDbEntity
  8
0
  6
Continuous
 62
     1
100
AcDbLine
 10
2053.397906907004
 20
-5813.855470576374
 30
0.0
 11
2053.397906907004
 21
-5813.45547057638
 31
0.0
  0
LINE
  5
51A
330
6C
100
AcDbEntity
  8
0
  6
Continuous
 62
     1
100
AcDbLine
 10
2053.172906907013
 20
-5813.905470576392
 30
0.0
 11
2053.397906907004
 21
-5813.905470576392
 31
0.0
  0
ARC
  5
51B
330
6C
100
AcDbEntity
  8
0
  6
Continuous
 62
     1
100
AcDbCircle
 10
2109.472906907002
 20
-5935.780470576392
 30
0.0
 40
102.025
100
AcDbArc
 50
67.06889484289253
 51
112.9181651868213
  0
ARC
  5
51C
330
6C
100
AcDbEntity
  8
0
  6
Continuous
 62
     1
100
AcDbCircle
 10
2120.697906907022
 20
-6063.005470576369
 30
0.0
 40
258.075
100
AcDbArc
 50
80.01195945554721
 51
105.1670141051833
  0
ARC
  5
51D
330
6C
100
AcDbEntity
  8
0
  6
Continuous
 62
     1
100
AcDbCircle
 10
2109.472906907002
 20
-5839.130470576339
 30
0.0
 40
61.70000000000001
100
AcDbArc
 50
103.7097111662502
 51
155.8654167473003
  0
CIRCLE
  5
51E
330
6C
100
AcDbEntity
  8
0
  6
Continuous
 62
     1
100
AcDbCircle
 10
2266.822906907008
 20
-5953.105470576375
 30
0.0
 40
7.0
  0
ARC
  5
51F
330
6C
100
AcDbEntity
  8
0
  6
Continuous
 62
     1
100
AcDbCircle
 10
2107.847906907002
 20
-5725.105470576403
 30
0.0
 40
187.175
100
AcDbArc
 50
264.6774857611082
 51
292.6740252969542
  0
CIRCLE
  5
520
330
6C
100
AcDbEntity
  8
0
  6
Continuous
 62
     1
100
AcDbCircle
 10
2109.147906907019
 20
-5969.055470576329
 30
0.0
 40
11.225
  0
CIRCLE
  5
521
330
6C
100
AcDbEntity
  8
0
  6
Continuous
 62
     1
100
AcDbCircle
 10
2188.397906907005
 20
-5965.580470576352
 30
0.0
 40
7.0
  0
CIRCLE
  5
522
330
6C
100
AcDbEntity
  8
0
  6
Continuous
 62
     1
100
AcDbCircle
 10
1730.37290690701
 20
-5867.58047057641
 30
0.0
 40
11.225
  0
CIRCLE
  5
523
330
6C
100
AcDbEntity
  8
0
  6
Continuous
 62
     1
100
AcDbCircle
 10
1874.847906907016
 20
-5932.58047057638
 30
0.0
 40
7.0
  0
CIRCLE
  5
524
330
6C
100
AcDbEntity
  8
0
  6
Continuous
 62
     1
100
AcDbCircle
 10
1800.74790690701
 20
-5904.155470576392
 30
0.0
 40
7.0
  0
CIRCLE
  5
525
330
6C
100
AcDbEntity
  8
0
  6
Continuous
 62
     1
100
AcDbCircle
 10
1951.522906907019
 20
-5953.180470576386
 30
0.0
 40
7.0
  0
CIRCLE
  5
526
330
6C
100
AcDbEntity
  8
0
  6
Continuous
 62
     1
100
AcDbCircle
 10
2029.897906907005
 20
-5965.455470576323
 30
0.0
 40
7.0
  0
ARC
  5
527
330
6C
100
AcDbEntity
  8
0
  6
Continuous
 62
     1
100
AcDbCircle
 10
2109.472906907002
 20
-5776.605470576345
 30
0.0
 40
102.025
100
AcDbArc
 50
247.0818348131786
 51
292.9311051571075
  0
ARC
  5
528
330
6C
100
AcDbEntity
  8
0
  6
Continuous
 62
     1
100
AcDbCircle
 10
2098.272906907019
 20
-5827.930470576328
 30
0.0
 40
84.12500000000001
100
AcDbArc
 50
91.3116278102267
 51
264.6744031978514
  0
ARC
  5
529
330
6C
100
AcDbEntity
  8
0
  6
Continuous
 62
     1
100
AcDbCircle
 10
2075.822906907008
 20
-5856.205470576352
 30
0.0
 40
15.425
100
AcDbArc
 50
112.8962090088712
 51
247.0678995622183
  0
ARC
  5
52A
330
6C
100
AcDbEntity
  8
0
  6
Continuous
 62
     1
100
AcDbCircle
 10
2157.147906907005
 20
-5855.980470576404
 30
0.0
 40
47.675
100
AcDbArc
 50
298.648837542432
 51
80.00069953657082
  0
ARC
  5
52B
330
6C
100
AcDbEntity
  8
0
  6
Continuous
 62
     1
100
AcDbCircle
 10
2143.147906907019
 20
-5856.205470576352
 30
0.0
 40
15.425
100
AcDbArc
 50
292.9321004377817
 51
67.10379099112879
  0
CIRCLE
  5
52C
330
6C
100
AcDbEntity
  8
0
  6
Continuous
 62
     1
100
AcDbCircle
 10
2722.497906907025
 20
-5657.130470576369
 30
0.0
 40
7.0
  0
LINE
  5
52D
330
6C
100
AcDbEntity
  8
0
  6
Continuous
 62
     1
100
AcDbLine
 10
2395.547906907014
 20
-5687.70547057641
 30
0.0
 11
2518.947906907037
 21
-5687.70547057641
 31
0.0
  0
LINE
  5
52E
330
6C
100
AcDbEntity
  8
0
  6
Continuous
 62
     1
100
AcDbLine
 10
2361.897906907019
 20
-5654.055470576386
 30
0.0
 11
2518.947906907037
 21
-5654.055470576386
 31
0.0
  0
ARC
  5
52F
330
6C
100
AcDbEntity
  8
0
  6
Continuous
 62
     1
100
AcDbCircle
 10
2442.872906907011
 20
-5807.230470576374
 30
0.0
 40
102.975
100
AcDbArc
 50
48.09246408955406
 51
117.3549874428226
  0
ARC
  5
530
330
6C
100
AcDbEntity
  8
0
  6
Continuous
 62
     1
100
AcDbCircle
 10
2479.672906907014
 20
-5766.230470576403
 30
0.0
 40
47.675
100
AcDbArc
 50
289.6598832568135
 51
48.09520177877459
  0
ARC
  5
531
330
6C
100
AcDbEntity
  8
0
  6
Continuous
 62
     1
100
AcDbCircle
 10
2450.222906907017
 20
-5637.605470576403
 30
0.0
 40
179.375
100
AcDbArc
 50
237.3597724214798
 51
284.6907362059786
  0
ARC
  5
532
330
6C
100
AcDbEntity
  8
0
  6
Continuous
 62
     1
100
AcDbCircle
 10
2437.547906907014
 20
-5679.955470576381
 30
0.0
 40
107.7
100
AcDbArc
 50
233.2391711679895
 51
292.9278597961274
  0
LINE
  5
533
330
6C
100
AcDbEntity
  8
0
  6
Continuous
 62
     1
100
AcDbLine
 10
2361.897906907019
 20
-5726.95547057641
 30
0.0
 11
2392.747906907025
 21
-5746.605470576404
 31
0.0
  0
LINE
  5
534
330
6C
100
AcDbEntity
  8
0
  6
Continuous
 62
     1
100
AcDbLine
 10
2361.897906907019
 20
-5726.95547057641
 30
0.0
 11
2361.897906907019
 21
-5654.055470576386
 31
0.0
  0
LINE
  5
535
330
6C
100
AcDbEntity
  8
0
  6
Continuous
 62
     1
100
AcDbLine
 10
2353.472906907031
 20
-5788.655470576333
 30
0.0
 11
2373.097906907016
 21
-5766.230470576403
 31
0.0
  0
LINE
  5
536
330
6C
100
AcDbEntity
  8
0
  6
Continuous
 62
     1
100
AcDbLine
 10
2395.547906907014
 20
-5715.755470576397
 30
0.0
 11
2395.547906907014
 21
-5687.70547057641
 31
0.0
  0
ARC
  5
537
330
6C
100
AcDbEntity
  8
0
  6
Continuous
 62
     1
100
AcDbCircle
 10
2474.072906907022
 20
-5766.230470576403
 30
0.0
 40
14.025
100
AcDbArc
 50
292.8088293180047
 51
49.631568669569
  0
ARC
  5
538
330
6C
100
AcDbEntity
  8
0
  6
Continuous
 62
     1
100
AcDbCircle
 10
2431.497906907025
 20
-5816.08047057638
 30
0.0
 40
79.6
100
AcDbArc
 50
49.52367294805966
 51
119.150793620463
  0
CIRCLE
  5
539
330
6C
100
AcDbEntity
  8
0
  6
Continuous
 62
     1
100
AcDbCircle
 10
2554.847906907017
 20
-5824.905470576362
 30
0.0
 40
7.0
  0
CIRCLE
  5
53A
330
6C
100
AcDbEntity
  8
0
  6
Continuous
 62
     1
100
AcDbCircle
 10
2616.472906907016
 20
-5774.930470576357
 30
0.0
 40
7.0
  0
LINE
  5
53B
330
6C
100
AcDbEntity
  8
0
  6
Continuous
 62
     1
100
AcDbLine
 10
2518.947906907037
 20
-5687.70547057641
 30
0.0
 11
2518.947906907037
 21
-5654.055470576386
 31
0.0
  0
CIRCLE
  5
53C
330
6C
100
AcDbEntity
  8
0
  6
Continuous
 62
     1
100
AcDbCircle
 10
2672.62290690701
 20
-5718.830470576381
 30
0.0
 40
7.0
  0
LINE
  5
53D
330
6C
100
AcDbEntity
  8
0
  6
Continuous
 62
     1
100
AcDbLine
 10
2578.847906907002
 20
-5525.030470576363
 30
0.0
 11
2664.772906907019
 21
-5525.030470576363
 31
0.0
  0
LINE
  5
53E
330
6C
100
AcDbEntity
  8
0
  6
Continuous
 62
     1
100
AcDbLine
 10
2578.847906907002
 20
-5525.030470576363
 30
0.0
 11
2664.772906907019
 21
-5451.380470576369
 31
0.0
  0
LINE
  5
53F
330
6C
100
AcDbEntity
  8
0
  6
Continuous
 62
     1
100
AcDbLine
 10
2535.772906907019
 20
-5558.680470576415
 30
0.0
 11
2664.772906907019
 21
-5558.680470576415
 31
0.0
  0
LINE
  5
540
330
6C
100
AcDbEntity
  8
0
  6
Continuous
 62
     1
100
AcDbLine
 10
2535.772906907019
 20
-5525.030470576363
 30
0.0
 11
2653.547906907014
 21
-5424.080470576352
 31
0.0
  0
LINE
  5
541
330
6C
100
AcDbEntity
  8
0
  6
Continuous
 62
     1
100
AcDbLine
 10
2535.772906907019
 20
-5558.680470576415
 30
0.0
 11
2535.772906907019
 21
-5525.030470576363
 31
0.0
  0
LINE
  5
542
330
6C
100
AcDbEntity
  8
0
  6
Continuous
 62
     1
100
AcDbLine
 10
2698.422906907014
 20
-5581.13047057634
 30
0.0
 11
2698.422906907014
 21
-5558.680470576415
 31
0.0
  0
LINE
  5
543
330
6C
100
AcDbEntity
  8
0
  6
Continuous
 62
     1
100
AcDbLine
 10
2698.422906907014
 20
-5558.680470576415
 30
0.0
 11
2726.472906907016
 21
-5558.680470576415
 31
0.0
  0
LINE
  5
544
330
6C
100
AcDbEntity
  8
0
  6
Continuous
 62
     1
100
AcDbLine
 10
2698.422906907014
 20
-5525.030470576363
 30
0.0
 11
2726.472906907016
 21
-5525.030470576363
 31
0.0
  0
LINE
  5
545
330
6C
100
AcDbEntity
  8
0
  6
Continuous
 62
     1
100
AcDbLine
 10
2698.422906907014
 20
-5525.030470576363
 30
0.0
 11
2698.422906907014
 21
-5424.080470576352
 31
0.0
  0
LINE
  5
546
330
6C
100
AcDbEntity
  8
0
  6
Continuous
 62
     1
100
AcDbLine
 10
2726.472906907016
 20
-5558.680470576415
 30
0.0
 11
2726.472906907016
 21
-5525.030470576363
 31
0.0
  0
LINE
  5
547
330
6C
100
AcDbEntity
  8
0
  6
Continuous
 62
     1
100
AcDbLine
 10
2664.772906907019
 20
-5581.13047057634
 30
0.0
 11
2664.772906907019
 21
-5558.680470576415
 31
0.0
  0
LINE
  5
548
330
6C
100
AcDbEntity
  8
0
  6
Continuous
 62
     1
100
AcDbLine
 10
2664.772906907019
 20
-5525.030470576363
 30
0.0
 11
2664.772906907019
 21
-5451.380470576369
 31
0.0
  0
LINE
  5
549
330
6C
100
AcDbEntity
  8
0
  6
Continuous
 62
     1
100
AcDbLine
 10
2653.547906907014
 20
-5424.080470576352
 30
0.0
 11
2698.422906907014
 21
-5424.080470576352
 31
0.0
  0
LINE
  5
54A
330
6C
100
AcDbEntity
  8
0
  6
Continuous
 62
     1
100
AcDbLine
 10
2664.772906907019
 20
-5581.13047057634
 30
0.0
 11
2698.422906907014
 21
-5581.13047057634
 31
0.0
  0
CIRCLE
  5
54B
330
6C
100
AcDbEntity
  8
0
  6
Continuous
 62
     1
100
AcDbCircle
 10
2850.822906907008
 20
-5369.105470576346
 30
0.0
 40
7.0
  0
CIRCLE
  5
54C
330
6C
100
AcDbEntity
  8
0
  6
Continuous
 62
     1
100
AcDbCircle
 10
2830.247906907025
 20
-5445.780470576334
 30
0.0
 40
7.0
  0
CIRCLE
  5
54D
330
6C
100
AcDbEntity
  8
0
  6
Continuous
 62
     1
100
AcDbCircle
 10
2801.797906907014
 20
-5519.880470576339
 30
0.0
 40
7.0
  0
CIRCLE
  5
54E
330
6C
100
AcDbEntity
  8
0
  6
Continuous
 62
     1
100
AcDbCircle
 10
2765.222906907017
 20
-5590.280470576391
 30
0.0
 40
11.225
  0
CIRCLE
  5
54F
330
6C
100
AcDbEntity
  8
0
  6
Continuous
 62
     1
100
AcDbCircle
 10
2417.472906907017
 20
-5904.105470576375
 30
0.0
 40
7.0
  0
CIRCLE
  5
550
330
6C
100
AcDbEntity
  8
0
  6
Continuous
 62
     1
100
AcDbCircle
 10
2487.922906907014
 20
-5867.58047057641
 30
0.0
 40
11.225
  0
LINE
  5
551
330
6C
100
AcDbEntity
  8
4
100
AcDbLine
 10
2802.292906907024
 20
-6085.930470576328
 30
0.0
 11
2975.497906907025
 21
-6085.930470576328
 31
0.0
  0
ELLIPSE
  5
552
330
6C
100
AcDbEntity
  8
4
100
AcDbEllipse
 10
1416.652906907024
 20
-5210.930470576357
 30
0.0
 11
0.0000000000000536
 21
875.0
 31
0.0
210
0.0
220
0.0
230
1.0
 40
0.5
 41
5.794618907203838
 42
6.601516984988184
  0
ELLIPSE
  5
553
330
6C
100
AcDbEntity
  8
4
100
AcDbEllipse
 10
1416.652906907024
 20
-5210.930470576357
 30
0.0
 11
0.0000000000000513
 21
837.5
 31
0.0
210
0.0
220
0.0
230
1.0
 40
0.5
 41
5.896111367875485
 42
6.616309938818254
  0
LINE
  5
554
330
6C
100
AcDbEntity
  8
0
  6
Continuous
 62
     1
100
AcDbLine
 10
1509.322906907008
 20
-4986.580470576352
 30
0.0
 11
1537.347906907016
 21
-4986.580470576352
 31
0.0
  0
LINE
  5
555
330
6C
100
AcDbEntity
  8
0
  6
Continuous
 62
     1
100
AcDbLine
 10
1514.922906907028
 20
-4823.905470576334
 30
0.0
 11
1537.347906907016
 21
-4823.905470576334
 31
0.0
  0
ARC
  5
556
330
6C
100
AcDbEntity
  8
0
  6
Continuous
 62
     1
100
AcDbCircle
 10
1502.522906907019
 20
-5260.505470576339
 30
0.0
 40
102.025
100
AcDbArc
 50
59.39052657276498
 51
105.2464896349352
  0
ARC
  5
557
330
6C
100
AcDbEntity
  8
0
  6
Continuous
 62
     1
100
AcDbCircle
 10
1523.797906907013
 20
-5102.780470576392
 30
0.0
 40
102.025
100
AcDbArc
 50
239.390526572765
 51
285.2464896349352
  0
ARC
  5
558
330
6C
100
AcDbEntity
  8
0
  6
Continuous
 62
     1
100
AcDbCircle
 10
1497.322906907007
 20
-5311.780470576392
 30
0.0
 40
187.175
100
AcDbArc
 50
77.00423692578088
 51
105.0107885016368
  0
ARC
  5
559
330
6C
100
AcDbEntity
  8
0
  6
Continuous
 62
     1
100
AcDbCircle
 10
1529.622906907025
 20
-4975.180470576415
 30
0.0
 40
258.075
100
AcDbArc
 50
252.3445852672142
 51
277.5029531817434
  0
ARC
  5
55A
330
6C
100
AcDbEntity
  8
0
  6
Continuous
 62
     1
100
AcDbCircle
 10
1510.897906907019
 20
-5198.530470576334
 30
0.0
 40
61.70000000000001
100
AcDbArc
 50
276.0454497856531
 51
328.1841171967202
  0
ARC
  5
55B
330
6C
100
AcDbEntity
  8
0
  6
Continuous
 62
     1
100
AcDbCircle
 10
1520.522906907005
 20
-5211.155470576363
 30
0.0
 40
84.12500000000001
100
AcDbArc
 50
263.6165462899942
 51
76.9887790681674
  0
LINE
  5
55C
330
6C
100
AcDbEntity
  8
4
100
AcDbLine
 10
1243.447906907022
 20
-4335.930470576328
 30
0.0
 11
1264.222906907016
 21
-4335.930470576328
 31
0.0
  0
LINE
  5
55D
330
6C
100
AcDbEntity
  8
4
100
AcDbLine
 10
1254.709306409437
 20
-4335.930470576328
 30
0.0
 11
1416.652906907024
 21
-4335.930470576328
 31
0.0
  0
LINE
  5
55E
330
6C
100
AcDbEntity
  8
0
  6
Continuous
 62
     1
100
AcDbLine
 10
1407.072906907007
 20
-5255.305470576357
 30
0.0
 11
1427.097906907016
 21
-5232.530470576363
 31
0.0
  0
ARC
  5
55F
330
6C
100
AcDbEntity
  8
0
  6
Continuous
 62
     1
100
AcDbCircle
 10
1536.122906907025
 20
-5071.780470576363
 30
0.0
 40
224.35
100
AcDbArc
 50
234.8861119080618
 51
263.6146823726199
  0
CIRCLE
  5
560
330
6C
100
AcDbEntity
  8
0
  6
Continuous
 62
     1
100
AcDbCircle
 10
1355.072906907022
 20
-5290.755470576398
 30
0.0
 40
7.0
  0
ARC
  5
561
330
6C
100
AcDbEntity
  8
0
  6
Continuous
 62
     1
100
AcDbCircle
 10
1519.472906907002
 20
-5090.330470576409
 30
0.0
 40
169.55
100
AcDbArc
 50
236.9917139775839
 51
269.2989366994301
  0
CIRCLE
  5
562
330
6C
100
AcDbEntity
  8
0
  6
Continuous
 62
     1
100
AcDbCircle
 10
1416.497906907025
 20
-4903.105470576374
 30
0.0
 40
7.0
  0
CIRCLE
  5
563
330
6C
100
AcDbEntity
  8
0
  6
Continuous
 62
     1
100
AcDbCircle
 10
1388.047906907013
 20
-4977.205470576351
 30
0.0
 40
7.0
  0
CIRCLE
  5
564
330
6C
100
AcDbEntity
  8
0
  6
Continuous
 62
     1
100
AcDbCircle
 10
1355.172906907013
 20
-5132.230470576375
 30
0.0
 40
7.0
  0
CIRCLE
  5
565
330
6C
100
AcDbEntity
  8
0
  6
Continuous
 62
     1
100
AcDbCircle
 10
1367.472906907016
 20
-5053.88047057634
 30
0.0
 40
7.0
  0
CIRCLE
  5
566
330
6C
100
AcDbEntity
  8
0
  6
Continuous
 62
     1
100
AcDbCircle
 10
1351.597906907002
 20
-5211.480470576345
 30
0.0
 40
11.225
  0
CIRCLE
  5
567
330
6C
100
AcDbEntity
  8
0
  6
Continuous
 62
     1
100
AcDbCircle
 10
1453.047906907013
 20
-4832.705470576381
 30
0.0
 40
11.225
  0
LINE
  5
568
330
6C
100
AcDbEntity
  8
0
  6
Continuous
 62
     1
100
AcDbLine
 10
1509.697906907022
 20
-4986.580470576352
 30
0.0
 11
1509.697906907022
 21
-4868.780470576363
 31
0.0
  0
LINE
  5
569
330
6C
100
AcDbEntity
  8
0
  6
Continuous
 62
     1
100
AcDbLine
 10
1492.87290690701
 20
-4868.780470576363
 30
0.0
 11
1509.697906907022
 21
-4868.780470576363
 31
0.0
  0
LINE
  5
56A
330
6C
100
AcDbEntity
  8
0
  6
Continuous
 62
     1
100
AcDbLine
 10
1492.87290690701
 20
-4868.155470576334
 30
0.0
 11
1492.87290690701
 21
-4845.730470576404
 31
0.0
  0
ARC
  5
56B
330
6C
100
AcDbEntity
  8
0
  6
Continuous
 62
     1
100
AcDbCircle
 10
1476.397906907019
 20
-4807.030470576334
 30
0.0
 40
42.075
100
AcDbArc
 50
293.0599683569614
 51
336.3452710186964
  0
ARC
  5
56C
330
6C
100
AcDbEntity
  8
0
  6
Continuous
 62
     1
100
AcDbCircle
 10
1479.822906907022
 20
-5177.155470576362
 30
0.0
 40
15.425
100
AcDbArc
 50
105.3117590546146
 51
239.3052357615699
  0
ARC
  5
56D
330
6C
100
AcDbEntity
  8
0
  6
Continuous
 62
     1
100
AcDbCircle
 10
1465.897906907004
 20
-5175.480470576374
 30
0.0
 40
47.675
100
AcDbArc
 50
110.9748974319047
 51
252.3135395336754
  0
CIRCLE
  5
56E
330
6C
100
AcDbEntity
  8
0
  6
Continuous
 62
     1
100
AcDbCircle
 10
1495.797906907013
 20
-4765.855470576316
 30
0.0
 40
7.0
  0
CIRCLE
  5
56F
330
6C
100
AcDbEntity
  8
0
  6
Continuous
 62
     1
100
AcDbCircle
 10
2343.422906907013
 20
-4490.405470576333
 30
0.0
 40
7.0
  0
LINE
  5
570
330
6C
100
AcDbEntity
  8
0
  6
Continuous
 62
     1
100
AcDbLine
 10
1983.072906907008
 20
-5296.655470576333
 30
0.0
 11
2638.02290690702
 21
-4664.680470576357
 31
0.0
  0
CIRCLE
  5
571
330
6C
100
AcDbEntity
  8
0
  6
Continuous
 62
     1
100
AcDbCircle
 10
2266.747906907025
 20
-4469.855470576404
 30
0.0
 40
7.0
  0
LINE
  5
572
330
6C
100
AcDbEntity
  8
0
  6
Continuous
 62
     1
100
AcDbLine
 10
2105.772906907019
 20
-4621.705470576322
 30
0.0
 11
2179.372906907025
 21
-4580.580470576322
 31
0.0
  0
LINE
  5
573
330
6C
100
AcDbEntity
  8
0
  6
Continuous
 62
     1
100
AcDbLine
 10
2118.297906907014
 20
-4650.030470576363
 30
0.0
 11
2194.397906907034
 21
-4607.50547057634
 31
0.0
  0
LINE
  5
574
330
6C
100
AcDbEntity
  8
0
  6
Continuous
 62
     1
100
AcDbLine
 10
2118.297906907014
 20
-4650.030470576363
 30
0.0
 11
2218.847906907002
 21
-4650.030470576363
 31
0.0
  0
ARC
  5
575
330
6C
100
AcDbEntity
  8
0
  6
Continuous
 62
     1
100
AcDbCircle
 10
2145.222906907017
 20
-4602.355470576403
 30
0.0
 40
61.70000000000001
100
AcDbArc
 50
54.52445046304027
 51
147.0179669557064
  0
CIRCLE
  5
576
330
6C
100
AcDbEntity
  8
0
  6
Continuous
 62
     1
100
AcDbCircle
 10
2109.147906907019
 20
-4453.880470576339
 30
0.0
 40
11.225
  0
ARC
  5
577
330
6C
100
AcDbEntity
  8
0
  6
Continuous
 62
     1
100
AcDbCircle
 10
2171.172906907028
 20
-4565.880470576339
 30
0.0
 40
47.675
100
AcDbArc
 50
299.1596802968394
 51
54.48674347257244
  0
ARC
  5
578
330
6C
100
AcDbEntity
  8
0
  6
Continuous
 62
     1
100
AcDbCircle
 10
2171.172906907028
 20
-4565.880470576339
 30
0.0
 40
16.825
100
AcDbArc
 50
299.153788845729
 51
54.40313237502773
  0
CIRCLE
  5
579
330
6C
100
AcDbEntity
  8
0
  6
Continuous
 62
     1
100
AcDbCircle
 10
2188.397906907005
 20
-4457.480470576345
 30
0.0
 40
7.0
  0
LINE
  5
57A
330
6C
100
AcDbEntity
  8
0
  6
Continuous
 62
     1
100
AcDbLine
 10
2218.847906907002
 20
-4678.080470576351
 30
0.0
 11
2218.847906907002
 21
-4650.030470576363
 31
0.0
  0
CIRCLE
  5
57B
330
6C
100
AcDbEntity
  8
0
  6
Continuous
 62
     1
100
AcDbCircle
 10
2109.472906907002
 20
-5210.930470576328
 30
0.0
 40
16.375
  0
LINE
  5
57C
330
6C
100
AcDbEntity
  8
0
  6
Continuous
 62
     1
100
AcDbLine
 10
2161.072906907022
 20
-5195.030470576362
 30
0.0
 11
2261.247906907025
 21
-5248.055470576328
 31
0.0
  0
LINE
  5
57D
330
6C
100
AcDbEntity
  8
0
  6
Continuous
 62
     1
100
AcDbLine
 10
2104.947906907008
 20
-5253.180470576386
 30
0.0
 11
2217.522906907019
 21
-5323.805470576386
 31
0.0
  0
LINE
  5
57E
330
6C
100
AcDbEntity
  8
0
  6
Continuous
 62
     1
100
AcDbLine
 10
2217.522906907019
 20
-5323.805470576386
 30
0.0
 11
2261.247906907025
 21
-5248.055470576328
 31
0.0
  0
LINE
  5
57F
330
6C
100
AcDbEntity
  8
0
  6
Continuous
 62
     1
100
AcDbLine
 10
2016.547906907014
 20
-4515.405470576333
 30
0.0
 11
2038.972906907016
 21
-4515.405470576333
 31
0.0
  0
LINE
  5
580
330
6C
100
AcDbEntity
  8
0
  6
Continuous
 62
     1
100
AcDbLine
 10
2010.922906907014
 20
-4678.080470576351
 30
0.0
 11
2038.972906907016
 21
-4678.080470576351
 31
0.0
  0
CIRCLE
  5
581
330
6C
100
AcDbEntity
  8
0
  6
Continuous
 62
     1
100
AcDbCircle
 10
1601.797906907013
 20
-4648.055470576328
 30
0.0
 40
7.0
  0
LINE
  5
582
330
6C
100
AcDbEntity
  8
0
  6
Continuous
 62
     1
100
AcDbLine
 10
1711.62290690701
 20
-4638.805470576357
 30
0.0
 11
1728.447906907022
 21
-4638.805470576357
 31
0.0
  0
LINE
  5
583
330
6C
100
AcDbEntity
  8
0
  6
Continuous
 62
     1
100
AcDbLine
 10
1711.62290690701
 20
-4638.180470576328
 30
0.0
 11
1711.62290690701
 21
-4615.755470576398
 31
0.0
  0
LINE
  5
584
330
6C
100
AcDbEntity
  8
0
  6
Continuous
 62
     1
100
AcDbLine
 10
1733.672906907028
 20
-4593.930470576415
 30
0.0
 11
1756.122906907025
 21
-4593.930470576415
 31
0.0
  0
ARC
  5
585
330
6C
100
AcDbEntity
  8
0
  6
Continuous
 62
     1
100
AcDbCircle
 10
1695.147906907019
 20
-4577.055470576328
 30
0.0
 40
42.075
100
AcDbArc
 50
293.0599683569614
 51
336.3452710186964
  0
CIRCLE
  5
586
330
6C
100
AcDbEntity
  8
0
  6
Continuous
 62
     1
100
AcDbCircle
 10
1730.37290690701
 20
-4555.405470576391
 30
0.0
 40
11.225
  0
CIRCLE
  5
587
330
6C
100
AcDbEntity
  8
0
  6
Continuous
 62
     1
100
AcDbCircle
 10
1663.447906907022
 20
-4598.080470576351
 30
0.0
 40
7.0
  0
LINE
  5
588
330
6C
100
AcDbEntity
  8
0
  6
Continuous
 62
     1
100
AcDbLine
 10
1851.847906907016
 20
-4638.805470576357
 30
0.0
 11
1868.697906907008
 21
-4638.805470576357
 31
0.0
  0
ARC
  5
589
330
6C
100
AcDbEntity
  8
0
  6
Continuous
 62
     1
100
AcDbCircle
 10
1835.37290690701
 20
-4577.055470576328
 30
0.0
 40
42.075
100
AcDbArc
 50
293.0599683569614
 51
336.3452710186964
  0
LINE
  5
58A
330
6C
100
AcDbEntity
  8
0
  6
Continuous
 62
     1
100
AcDbLine
 10
1851.847906907016
 20
-4638.180470576328
 30
0.0
 11
1851.847906907016
 21
-4615.755470576398
 31
0.0
  0
LINE
  5
58B
330
6C
100
AcDbEntity
  8
0
  6
Continuous
 62
     1
100
AcDbLine
 10
1873.897906907019
 20
-4593.930470576415
 30
0.0
 11
1896.347906907031
 21
-4593.930470576415
 31
0.0
  0
CIRCLE
  5
58C
330
6C
100
AcDbEntity
  8
0
  6
Continuous
 62
     1
100
AcDbCircle
 10
1874.797906907013
 20
-4490.405470576333
 30
0.0
 40
7.0
  0
CIRCLE
  5
58D
330
6C
100
AcDbEntity
  8
0
  6
Continuous
 62
     1
100
AcDbCircle
 10
1800.822906907007
 20
-4518.880470576397
 30
0.0
 40
7.0
  0
LINE
  5
58E
330
6C
100
AcDbEntity
  8
0
  6
Continuous
 62
     1
100
AcDbLine
 10
1994.49790690701
 20
-4560.280470576363
 30
0.0
 11
2011.322906907022
 21
-4560.280470576363
 31
0.0
  0
ARC
  5
58F
330
6C
100
AcDbEntity
  8
0
  6
Continuous
 62
     1
100
AcDbCircle
 10
1977.997906907025
 20
-4498.530470576334
 30
0.0
 40
42.075
100
AcDbArc
 50
293.0912951714316
 51
336.3589280603974
  0
LINE
  5
590
330
6C
100
AcDbEntity
  8
0
  6
Continuous
 62
     1
100
AcDbLine
 10
1994.49790690701
 20
-4559.655470576333
 30
0.0
 11
1994.49790690701
 21
-4537.230470576403
 31
0.0
  0
CIRCLE
  5
591
330
6C
100
AcDbEntity
  8
0
  6
Continuous
 62
     1
100
AcDbCircle
 10
1951.472906907016
 20
-4469.855470576404
 30
0.0
 40
7.0
  0
LINE
  5
592
330
6C
100
AcDbEntity
  8
0
  6
Continuous
 62
     1
100
AcDbLine
 10
2011.322906907022
 20
-4678.080470576351
 30
0.0
 11
2011.322906907022
 21
-4560.280470576363
 31
0.0
  0
CIRCLE
  5
593
330
6C
100
AcDbEntity
  8
0
  6
Continuous
 62
     1
100
AcDbCircle
 10
2029.897906907005
 20
-4457.405470576333
 30
0.0
 40
7.0
  0
LINE
  5
594
330
6C
100
AcDbEntity
  8
0
  6
Continuous
 62
     1
100
AcDbLine
 10
2038.972906907016
 20
-4678.080470576351
 30
0.0
 11
2038.972906907016
 21
-4515.405470576333
 31
0.0
  0
LINE
  5
595
330
6C
100
AcDbEntity
  8
0
  6
Continuous
 62
     1
100
AcDbLine
 10
1698.297906907028
 20
-4998.080470576351
 30
0.0
 11
2058.397906907019
 21
-5223.980470576345
 31
0.0
  0
LINE
  5
596
330
6C
100
AcDbEntity
  8
0
  6
Continuous
 62
     1
100
AcDbLine
 10
1563.047906907013
 20
-5231.45547057641
 30
0.0
 11
1563.097906907016
 21
-5231.130470576339
 31
0.0
  0
LINE
  5
597
330
6C
100
AcDbEntity
  8
0
  6
Continuous
 62
     1
100
AcDbLine
 10
1563.097906907016
 20
-5231.055470576328
 30
0.0
 11
1563.322906907007
 21
-5231.055470576328
 31
0.0
  0
CIRCLE
  5
598
330
6C
100
AcDbEntity
  8
0
  6
Continuous
 62
     1
100
AcDbCircle
 10
1638.322906907007
 20
-4908.030470576363
 30
0.0
 40
44.87499999999999
  0
CIRCLE
  5
599
330
6C
100
AcDbEntity
  8
0
  6
Continuous
 62
     1
100
AcDbCircle
 10
1638.322906907007
 20
-4908.030470576363
 30
0.0
 40
78.525
  0
LINE
  5
59A
330
6C
100
AcDbEntity
  8
0
  6
Continuous
 62
     1
100
AcDbLine
 10
1537.347906907016
 20
-4986.580470576352
 30
0.0
 11
1537.347906907016
 21
-4823.905470576334
 31
0.0
  0
ARC
  5
59B
330
6C
100
AcDbEntity
  8
0
  6
Continuous
 62
     1
100
AcDbCircle
 10
1546.497906907025
 20
-5186.130470576369
 30
0.0
 40
15.425
100
AcDbArc
 50
285.3117590546147
 51
59.30523576156993
  0
LINE
  5
59C
330
6C
100
AcDbEntity
  8
0
  6
Continuous
 62
     1
100
AcDbLine
 10
1698.297906907028
 20
-4998.080470576351
 30
0.0
 11
1719.547906907028
 21
-4961.280470576392
 31
0.0
  0
CIRCLE
  5
59D
330
6C
100
AcDbEntity
  8
0
  6
Continuous
 62
     1
100
AcDbCircle
 10
1545.672906907013
 20
-4704.155470576392
 30
0.0
 40
7.0
  0
LINE
  5
59E
330
6C
100
AcDbEntity
  8
0
  6
Continuous
 62
     1
100
AcDbLine
 10
1728.072906907008
 20
-4756.605470576345
 30
0.0
 11
1756.122906907025
 21
-4756.605470576345
 31
0.0
  0
LINE
  5
59F
330
6C
100
AcDbEntity
  8
0
  6
Continuous
 62
     1
100
AcDbLine
 10
1868.297906907013
 20
-4756.605470576345
 30
0.0
 11
1896.347906907031
 21
-4756.605470576345
 31
0.0
  0
LINE
  5
5A0
330
6C
100
AcDbEntity
  8
0
  6
Continuous
 62
     1
100
AcDbLine
 10
1728.447906907022
 20
-4756.605470576345
 30
0.0
 11
1728.447906907022
 21
-4638.805470576357
 31
0.0
  0
LINE
  5
5A1
330
6C
100
AcDbEntity
  8
0
  6
Continuous
 62
     1
100
AcDbLine
 10
1756.122906907025
 20
-4756.605470576345
 30
0.0
 11
1756.122906907025
 21
-4593.930470576415
 31
0.0
  0
LINE
  5
5A2
330
6C
100
AcDbEntity
  8
0
  6
Continuous
 62
     1
100
AcDbLine
 10
1868.697906907008
 20
-4756.605470576345
 30
0.0
 11
1868.697906907008
 21
-4638.805470576357
 31
0.0
  0
LINE
  5
5A3
330
6C
100
AcDbEntity
  8
0
  6
Continuous
 62
     1
100
AcDbLine
 10
1896.347906907031
 20
-4756.605470576345
 30
0.0
 11
1896.347906907031
 21
-4593.930470576415
 31
0.0
  0
LINE
  5
5A4
330
6C
100
AcDbEntity
  8
0
  6
Continuous
 62
     1
100
AcDbLine
 10
1719.547906907028
 20
-4961.280470576392
 30
0.0
 11
2114.147906907019
 21
-5170.180470576386
 31
0.0
  0
ARC
  5
5A5
330
6C
100
AcDbEntity
  8
0
  6
Continuous
 62
     1
100
AcDbCircle
 10
2145.222906907017
 20
-4602.355470576403
 30
0.0
 40
92.55
100
AcDbArc
 50
54.52713233738702
 51
147.0267361883192
  0
LINE
  5
5A6
330
6C
100
AcDbEntity
  8
0
  6
Continuous
 62
     1
100
AcDbLine
 10
2073.022906907019
 20
-4678.080470576351
 30
0.0
 11
2218.847906907002
 21
-4678.080470576351
 31
0.0
  0
LINE
  5
5A7
330
6C
100
AcDbEntity
  8
0
  6
Continuous
 62
     1
100
AcDbLine
 10
2067.422906907014
 20
-4551.880470576397
 30
0.0
 11
2092.64790690702
 21
-4568.705470576351
 31
0.0
  0
ARC
  5
5A8
330
6C
100
AcDbEntity
  8
0
  6
Continuous
 62
     1
100
AcDbCircle
 10
2137.247906907025
 20
-4678.080470576351
 30
0.0
 40
64.5
100
AcDbArc
 50
119.1752719787399
 51
180.0
  0
LINE
  5
5A9
330
6C
100
AcDbEntity
  8
0
  6
Continuous
 62
     1
100
AcDbLine
 10
2417.597906907031
 20
-4582.730470576403
 30
0.0
 11
2440.02290690702
 21
-4582.730470576403
 31
0.0
  0
CIRCLE
  5
5AA
330
6C
100
AcDbEntity
  8
0
  6
Continuous
 62
     1
100
AcDbCircle
 10
2417.522906907019
 20
-4518.83047057638
 30
0.0
 40
7.0
  0
CIRCLE
  5
5AB
330
6C
100
AcDbEntity
  8
0
  6
Continuous
 62
     1
100
AcDbCircle
 10
2487.922906907014
 20
-4555.405470576391
 30
0.0
 40
11.225
  0
LINE
  5
5AC
330
6C
100
AcDbEntity
  8
0
  6
Continuous
 62
     1
100
AcDbLine
 10
2395.547906907014
 20
-4626.980470576404
 30
0.0
 11
2395.547906907014
 21
-4604.530470576391
 31
0.0
  0
ARC
  5
5AD
330
6C
100
AcDbEntity
  8
0
  6
Continuous
 62
     1
100
AcDbCircle
 10
2379.047906907013
 20
-4565.830470576409
 30
0.0
 40
42.075
100
AcDbArc
 50
293.0912951714316
 51
336.327753717242
  0
LINE
  5
5AE
330
6C
100
AcDbEntity
  8
0
  6
Continuous
 62
     1
100
AcDbLine
 10
2395.547906907014
 20
-4627.580470576351
 30
0.0
 11
2412.372906907025
 21
-4627.580470576351
 31
0.0
  0
CIRCLE
  5
5AF
330
6C
100
AcDbEntity
  8
0
  6
Continuous
 62
     1
100
AcDbCircle
 10
2554.772906907019
 20
-4598.155470576362
 30
0.0
 40
7.0
  0
CIRCLE
  5
5B0
330
6C
100
AcDbEntity
  8
0
  6
Continuous
 62
     1
100
AcDbCircle
 10
2616.472906907016
 20
-4648.005470576339
 30
0.0
 40
7.0
  0
LINE
  5
5B1
330
6C
100
AcDbEntity
  8
0
  6
Continuous
 62
     1
100
AcDbLine
 10
2638.02290690702
 20
-4664.680470576357
 30
0.0
 11
2655.722906907031
 21
-4682.380470576339
 31
0.0
  0
LINE
  5
5B2
330
6C
100
AcDbEntity
  8
4
100
AcDbLine
 10
2802.292906907024
 20
-4335.930470576328
 30
0.0
 11
2975.497906907025
 21
-4335.930470576328
 31
0.0
  0
LINE
  5
5B3
330
6C
100
AcDbEntity
  8
0
  6
Continuous
 62
     1
100
AcDbLine
 10
2411.972906907031
 20
-4745.380470576339
 30
0.0
 11
2440.02290690702
 21
-4745.380470576339
 31
0.0
  0
ARC
  5
5B4
330
6C
100
AcDbEntity
  8
0
  6
Continuous
 62
     1
100
AcDbCircle
 10
2746.097906907016
 20
-5180.08047057641
 30
0.0
 40
12.625
100
AcDbArc
 50
273.4132000141043
 51
59.52294412532879
  0
ARC
  5
5B5
330
6C
100
AcDbEntity
  8
0
  6
Continuous
 62
     1
100
AcDbCircle
 10
2746.097906907016
 20
-5247.380470576369
 30
0.0
 40
14.025
100
AcDbArc
 50
280.6134220541533
 51
62.980229960421
  0
ARC
  5
5B6
330
6C
100
AcDbEntity
  8
0
  6
Continuous
 62
     1
100
AcDbCircle
 10
2713.247906907011
 20
-5312.005470576369
 30
0.0
 40
86.65
100
AcDbArc
 50
63.04282215734846
 51
103.6274814648628
  0
ARC
  5
5B7
330
6C
100
AcDbEntity
  8
0
  6
Continuous
 62
     1
100
AcDbCircle
 10
2710.322906907022
 20
-5241.005470576368
 30
0.0
 40
83.25000000000001
100
AcDbArc
 50
59.57021369838491
 51
132.9806370178728
  0
ARC
  5
5B8
330
6C
100
AcDbEntity
  8
0
  6
Continuous
 62
     1
100
AcDbCircle
 10
2715.322906907022
 20
-5238.530470576392
 30
0.0
 40
114.75
100
AcDbArc
 50
55.0386723217508
 51
135.1853654559576
  0
ARC
  5
5B9
330
6C
100
AcDbEntity
  8
0
  6
Continuous
 62
     1
100
AcDbCircle
 10
2723.772906907019
 20
-5138.005470576369
 30
0.0
 40
159.975
100
AcDbArc
 50
232.0983094265589
 51
288.3896736218488
  0
LINE
  5
5BA
330
6C
100
AcDbEntity
  8
0
  6
Continuous
 62
     1
100
AcDbLine
 10
2692.822906907022
 20
-5227.755470576397
 30
0.0
 11
2692.822906907022
 21
-5188.505470576398
 31
0.0
  0
LINE
  5
5BB
330
6C
100
AcDbEntity
  8
0
  6
Continuous
 62
     1
100
AcDbLine
 10
2625.522906907019
 20
-5264.205470576351
 30
0.0
 11
2647.947906907023
 21
-5241.780470576333
 31
0.0
  0
ARC
  5
5BC
330
6C
100
AcDbEntity
  8
0
  6
Continuous
 62
     1
100
AcDbCircle
 10
2723.097906907016
 20
-5123.980470576345
 30
0.0
 40
139.725
100
AcDbArc
 50
237.4643368147905
 51
280.5635743911068
  0
ARC
  5
5BD
330
6C
100
AcDbEntity
  8
0
  6
Continuous
 62
     1
100
AcDbCircle
 10
2630.397906907019
 20
-4910.855470576404
 30
0.0
 40
61.70000000000001
100
AcDbArc
 50
54.52445046304027
 51
147.0179669557064
  0
LINE
  5
5BE
330
6C
100
AcDbEntity
  8
0
  6
Continuous
 62
     1
100
AcDbLine
 10
2590.972906907031
 20
-4930.205470576351
 30
0.0
 11
2664.547906907014
 21
-4889.080470576322
 31
0.0
  0
LINE
  5
5BF
330
6C
100
AcDbEntity
  8
0
  6
Continuous
 62
     1
100
AcDbLine
 10
2558.197906907022
 20
-4986.580470576352
 30
0.0
 11
2704.047906907014
 21
-4986.580470576352
 31
0.0
  0
ARC
  5
5C0
330
6C
100
AcDbEntity
  8
0
  6
Continuous
 62
     1
100
AcDbCircle
 10
2630.397906907019
 20
-4910.855470576404
 30
0.0
 40
92.55
100
AcDbArc
 50
54.53611750381067
 51
147.0183117864359
  0
LINE
  5
5C1
330
6C
100
AcDbEntity
  8
0
  6
Continuous
 62
     1
100
AcDbLine
 10
2603.472906907031
 20
-4958.530470576391
 30
0.0
 11
2704.047906907014
 21
-4958.530470576391
 31
0.0
  0
LINE
  5
5C2
330
6C
100
AcDbEntity
  8
0
  6
Continuous
 62
     1
100
AcDbLine
 10
2603.472906907031
 20
-4958.530470576391
 30
0.0
 11
2679.572906907008
 21
-4916.005470576369
 31
0.0
  0
ARC
  5
5C3
330
6C
100
AcDbEntity
  8
0
  6
Continuous
 62
     1
100
AcDbCircle
 10
2622.422906907014
 20
-4986.580470576352
 30
0.0
 40
64.5
100
AcDbArc
 50
119.1558980178519
 51
180.0
  0
LINE
  5
5C4
330
6C
100
AcDbEntity
  8
0
  6
Continuous
 62
     1
100
AcDbLine
 10
2552.597906907031
 20
-4860.355470576375
 30
0.0
 11
2577.847906907031
 21
-4877.180470576357
 31
0.0
  0
LINE
  5
5C5
330
6C
100
AcDbEntity
  8
0
  6
Continuous
 62
     1
100
AcDbLine
 10
2704.047906907014
 20
-4986.580470576352
 30
0.0
 11
2704.047906907014
 21
-4958.530470576391
 31
0.0
  0
ARC
  5
5C6
330
6C
100
AcDbEntity
  8
0
  6
Continuous
 62
     1
100
AcDbCircle
 10
2656.372906907011
 20
-4874.38047057634
 30
0.0
 40
47.675
100
AcDbArc
 50
299.1334313635794
 51
54.52860040144861
  0
ARC
  5
5C7
330
6C
100
AcDbEntity
  8
0
  6
Continuous
 62
     1
100
AcDbCircle
 10
2656.372906907011
 20
-4874.38047057634
 30
0.0
 40
16.825
100
AcDbArc
 50
299.0794182070236
 51
54.47219568312561
  0
LINE
  5
5C8
330
6C
100
AcDbEntity
  8
0
  6
Continuous
 62
     1
100
AcDbLine
 10
2745.097906907002
 20
-5192.655470576333
 30
0.0
 11
2745.272906907019
 21
-5192.655470576333
 31
0.0
  0
ARC
  5
5C9
330
6C
100
AcDbEntity
  8
0
  6
Continuous
 62
     1
100
AcDbCircle
 10
2734.822906907008
 20
-4991.005470576368
 30
0.0
 40
201.925
100
AcDbArc
 50
257.9944268729501
 51
273.4126793517854
  0
LINE
  5
5CA
330
6C
100
AcDbEntity
  8
0
  6
Continuous
 62
     1
100
AcDbLine
 10
2633.922906907014
 20
-5157.655470576392
 30
0.0
 11
2653.547906907014
 21
-5180.08047057641
 31
0.0
  0
ARC
  5
5CB
330
6C
100
AcDbEntity
  8
0
  6
Continuous
 62
     1
100
AcDbCircle
 10
2760.122906907011
 20
-5247.380470576369
 30
0.0
 40
44.87499999999999
100
AcDbArc
 50
288.4046282507913
 51
66.49125248107996
  0
CIRCLE
  5
5CC
330
6C
100
AcDbEntity
  8
0
  6
Continuous
 62
     1
100
AcDbCircle
 10
2863.122906907025
 20
-5290.755470576398
 30
0.0
 40
7.0
  0
CIRCLE
  5
5CD
330
6C
100
AcDbEntity
  8
0
  6
Continuous
 62
     1
100
AcDbCircle
 10
2866.697906907022
 20
-5211.480470576345
 30
0.0
 40
11.225
  0
CIRCLE
  5
5CE
330
6C
100
AcDbEntity
  8
0
  6
Continuous
 62
     1
100
AcDbCircle
 10
2830.247906907025
 20
-4977.155470576363
 30
0.0
 40
7.0
  0
CIRCLE
  5
5CF
330
6C
100
AcDbEntity
  8
0
  6
Continuous
 62
     1
100
AcDbCircle
 10
2801.747906907025
 20
-4903.155470576363
 30
0.0
 40
7.0
  0
ARC
  5
5D0
330
6C
100
AcDbEntity
  8
0
  6
Continuous
 62
     1
100
AcDbCircle
 10
2760.122906907011
 20
-5174.480470576345
 30
0.0
 40
36.45
100
AcDbArc
 50
299.4134137504967
 51
55.05936901785787
  0
CIRCLE
  5
5D1
330
6C
100
AcDbEntity
  8
0
  6
Continuous
 62
     1
100
AcDbCircle
 10
2863.222906907002
 20
-5132.230470576375
 30
0.0
 40
7.0
  0
CIRCLE
  5
5D2
330
6C
100
AcDbEntity
  8
0
  6
Continuous
 62
     1
100
AcDbCircle
 10
2850.77290690702
 20
-5053.830470576322
 30
0.0
 40
7.0
  0
CIRCLE
  5
5D3
330
6C
100
AcDbEntity
  8
0
  6
Continuous
 62
     1
100
AcDbCircle
 10
2765.222906907017
 20
-4832.705470576381
 30
0.0
 40
11.225
  0
CIRCLE
  5
5D4
330
6C
100
AcDbEntity
  8
0
  6
Continuous
 62
     1
100
AcDbCircle
 10
2722.547906907013
 20
-4765.805470576415
 30
0.0
 40
7.0
  0
CIRCLE
  5
5D5
330
6C
100
AcDbEntity
  8
0
  6
Continuous
 62
     1
100
AcDbCircle
 10
2672.572906907022
 20
-4704.155470576392
 30
0.0
 40
7.0
  0
LINE
  5
5D6
330
6C
100
AcDbEntity
  8
0
  6
Continuous
 62
     1
100
AcDbLine
 10
2412.372906907025
 20
-4745.380470576339
 30
0.0
 11
2412.372906907025
 21
-4627.580470576351
 31
0.0
  0
LINE
  5
5D7
330
6C
100
AcDbEntity
  8
0
  6
Continuous
 62
     1
100
AcDbLine
 10
2440.02290690702
 20
-4745.380470576339
 30
0.0
 11
2440.02290690702
 21
-4582.730470576403
 31
0.0
  0
TEXT
  5
5D8
330
6C
100
AcDbEntity
  8
SUNPO
  6
Continuous
 62
     4
100
AcDbText
 10
4683.972899053013
 20
-5661.032441539512
 30
0.0
 40
300.0
  1
%%c700
 50
90.0
 72
     1
 11
4683.972899053013
 21
-5210.914331303291
 31
0.0
100
AcDbText
 73
     1
  0
LINE
  5
5D9
330
6C
100
AcDbEntity
  8
SUNPO
  6
Continuous
 62
     1
100
AcDbLine
 10
4783.972899053013
 20
-6085.93047057592
 30
0.0
 11
4783.972899053013
 21
-4335.930470576095
 31
0.0
  0
LINE
  5
5DA
330
6C
100
AcDbEntity
  8
SUNPO
  6
Continuous
 62
     1
100
AcDbLine
 10
3399.721080006159
 20
-6085.930470576357
 30
0.0
 11
4983.972899052984
 21
-6085.930470576357
 31
0.0
  0
LINE
  5
5DB
330
6C
100
AcDbEntity
  8
SUNPO
  6
Continuous
 62
     1
100
AcDbLine
 10
4833.972899052984
 20
-6285.930470576211
 30
0.0
 11
4783.972899052984
 21
-6085.930470576212
 31
0.0
  0
LINE
  5
5DC
330
6C
100
AcDbEntity
  8
SUNPO
  6
Continuous
 62
     1
100
AcDbLine
 10
4783.972899053043
 20
-6085.930470575979
 30
0.0
 11
4833.972899053042
 21
-5885.930470575979
 31
0.0
  0
LINE
  5
5DD
330
6C
100
AcDbEntity
  8
SUNPO
  6
Continuous
 62
     1
100
AcDbLine
 10
4783.972899052984
 20
-6085.930470576212
 30
0.0
 11
4733.972899052984
 21
-6285.930470576211
 31
0.0
  0
LINE
  5
5DE
330
6C
100
AcDbEntity
  8
SUNPO
  6
Continuous
 62
     1
100
AcDbLine
 10
4733.972899053042
 20
-5885.930470575979
 30
0.0
 11
4783.972899053043
 21
-6085.930470575979
 31
0.0
  0
LINE
  5
5DF
330
6C
100
AcDbEntity
  8
SUNPO
  6
Continuous
 62
     1
100
AcDbLine
 10
3399.721080006144
 20
-4335.930470576095
 30
0.0
 11
4983.972899052984
 21
-4335.930470576095
 31
0.0
  0
LINE
  5
5E0
330
6C
100
AcDbEntity
  8
SUNPO
  6
Continuous
 62
     1
100
AcDbLine
 10
4833.972899052984
 20
-4535.930470576095
 30
0.0
 11
4783.972899052984
 21
-4335.930470576095
 31
0.0
  0
LINE
  5
5E1
330
6C
100
AcDbEntity
  8
SUNPO
  6
Continuous
 62
     1
100
AcDbLine
 10
4783.972899052984
 20
-4335.930470576095
 30
0.0
 11
4733.972899052984
 21
-4535.930470576095
 31
0.0
  0
LINE
  5
5E2
330
6C
100
AcDbEntity
  8
0
  6
Continuous
 62
     1
100
AcDbLine
 10
8709.693398711737
 20
-5296.655470576333
 30
0.0
 11
8744.918398711758
 21
-5337.330470576322
 31
0.0
  0
LINE
  5
5E3
330
6C
100
AcDbEntity
  8
0
  6
Continuous
 62
     1
100
AcDbLine
 10
8744.918398711758
 20
-5337.330470576322
 30
0.0
 11
9292.225898711768
 21
-4682.380470576339
 31
0.0
  0
ELLIPSE
  5
5E4
330
6C
100
AcDbEntity
  8
4
100
AcDbEllipse
 10
8619.158398711748
 20
-5210.930470576357
 30
0.0
 11
0.0000000000000475
 21
775.0
 31
0.0
210
0.0
220
0.0
230
1.0
 40
0.866025806451613
 41
1.107149205196262
 42
2.03444344839353
  0
ELLIPSE
  5
5E5
330
6C
100
AcDbEntity
  8
0
  6
Continuous
 62
     3
100
AcDbEllipse
 10
8759.158398711749
 20
-5210.930470576357
 30
0.0
 11
0.0000000000000536
 21
875.0
 31
0.0
210
0.0
220
0.0
230
1.0
 40
0.8660257142857142
 41
6.082324826202686
 42
9.625638441746279
  0
ELLIPSE
  5
5E6
330
6C
100
AcDbEntity
  8
4
100
AcDbEllipse
 10
8819.158398711747
 20
-5210.930470576357
 30
0.0
 11
-0.0000000000001492
 21
-812.5
 31
0.0
210
0.0
220
0.0
230
1.0
 40
0.8660276923076924
 41
0.0
 42
6.283185307179586
  0
ELLIPSE
  5
5E7
330
6C
100
AcDbEntity
  8
4
100
AcDbEllipse
 10
8819.158398711747
 20
-5210.930470576357
 30
0.0
 11
-0.0000000000001584
 21
-862.5
 31
0.0
210
0.0
220
0.0
230
1.0
 40
0.8660289855072463
 41
0.0
 42
6.283185307179586
  0
LINE
  5
5E8
330
6C
100
AcDbEntity
  8
4
100
AcDbLine
 10
7439.158398711748
 20
-6085.930470576328
 30
0.0
 11
7439.158398711748
 21
-4335.930470576328
 31
0.0
  0
LINE
  5
5E9
330
6C
100
AcDbEntity
  8
4
100
AcDbLine
 10
7319.158398711748
 20
-6073.430470576328
 30
0.0
 11
7319.158398711748
 21
-4348.430470576327
 31
0.0
  0
LINE
  5
5EA
330
6C
100
AcDbEntity
  8
4
100
AcDbLine
 10
7719.158398711748
 20
-5985.930470576327
 30
0.0
 11
7719.158398711748
 21
-4435.930470576328
 31
0.0
  0
LINE
  5
5EB
330
6C
100
AcDbEntity
  8
4
100
AcDbLine
 10
7519.158398711748
 20
-6085.930470576328
 30
0.0
 11
7519.158398711748
 21
-4335.930470576328
 31
0.0
  0
ELLIPSE
  5
5EC
330
6C
100
AcDbEntity
  8
0
  6
Continuous
 62
     3
100
AcDbEllipse
 10
8719.158398711748
 20
-5210.930470576357
 30
0.0
 11
0.0000000000000536
 21
875.0
 31
0.0
210
0.0
220
0.0
230
1.0
 40
0.8660257142857142
 41
0.0
 42
3.141592653589793
  0
LINE
  5
5ED
330
6C
100
AcDbEntity
  8
SUNPO
  6
Continuous
 62
     1
100
AcDbLine
 10
7319.158398711909
 20
-6858.298004746088
 30
0.0
 11
7119.158398711909
 21
-6808.298004746088
 31
0.0
  0
LINE
  5
5EE
330
6C
100
AcDbEntity
  8
SUNPO
  6
Continuous
 62
     1
100
AcDbLine
 10
7919.158398711676
 20
-6808.298004746146
 30
0.0
 11
7719.158398711676
 21
-6858.298004746146
 31
0.0
  0
LINE
  5
5EF
330
6C
100
AcDbEntity
  8
4
100
AcDbLine
 10
7719.158398711748
 20
-5585.930470576328
 30
0.0
 11
8034.505898711753
 21
-5585.930470576328
 31
0.0
  0
LINE
  5
5F0
330
6C
100
AcDbEntity
  8
4
100
AcDbLine
 10
7439.158398711748
 20
-6085.930470576328
 30
0.0
 11
7519.158398711748
 21
-6085.930470576328
 31
0.0
  0
LINE
  5
5F1
330
6C
100
AcDbEntity
  8
4
100
AcDbLine
 10
7319.158398711748
 20
-6073.430470576328
 30
0.0
 11
7439.158398711748
 21
-6085.930470576328
 31
0.0
  0
LINE
  5
5F2
330
6C
100
AcDbEntity
  8
4
100
AcDbLine
 10
7519.158398711748
 20
-6048.430470576327
 30
0.0
 11
7719.158398711748
 21
-5985.930470576327
 31
0.0
  0
LINE
  5
5F3
330
6C
100
AcDbEntity
  8
0
  6
Continuous
 62
     1
100
AcDbLine
 10
8634.588398711741
 20
-5698.770470576382
 30
0.0
 11
8634.588398711741
 21
-5672.052970576384
 31
0.0
  0
ARC
  5
5F4
330
6C
100
AcDbEntity
  8
0
  6
Continuous
 62
     1
100
AcDbCircle
 10
8824.310898711745
 20
-5932.557970576389
 30
0.0
 40
146.835
100
AcDbArc
 50
64.6553089217013
 51
96.96847188394109
  0
ARC
  5
5F5
330
6C
100
AcDbEntity
  8
0
  6
Continuous
 62
     1
100
AcDbCircle
 10
8812.165898711741
 20
-5950.440470576396
 30
0.0
 40
194.2925
100
AcDbArc
 50
62.55308843623813
 51
91.29022735171126
  0
ARC
  5
5F6
330
6C
100
AcDbEntity
  8
0
  6
Continuous
 62
     1
100
AcDbCircle
 10
8828.878398711735
 20
-6032.582970576383
 30
0.0
 40
223.5
100
AcDbArc
 50
80.01188752635092
 51
105.1667616388763
  0
ARC
  5
5F7
330
6C
100
AcDbEntity
  8
0
  6
Continuous
 62
     1
100
AcDbCircle
 10
8819.158398711747
 20
-5922.40297057636
 30
0.0
 40
88.35500000000001
100
AcDbArc
 50
67.06916373665196
 51
112.9173885831876
  0
LINE
  5
5F8
330
6C
100
AcDbEntity
  8
0
  6
Continuous
 62
     1
100
AcDbLine
 10
8770.595898711762
 20
-5816.812970576335
 30
0.0
 11
8770.595898711762
 21
-5816.465470576389
 31
0.0
  0
LINE
  5
5F9
330
6C
100
AcDbEntity
  8
0
  6
Continuous
 62
     1
100
AcDbLine
 10
8770.400898711756
 20
-5816.855470576346
 30
0.0
 11
8770.595898711762
 21
-5816.855470576346
 31
0.0
  0
ARC
  5
5FA
330
6C
100
AcDbEntity
  8
0
  6
Continuous
 62
     1
100
AcDbCircle
 10
8819.158398711747
 20
-5838.702970576407
 30
0.0
 40
53.435
100
AcDbArc
 50
103.7086122746117
 51
155.8635687562446
  0
LINE
  5
5FB
330
6C
100
AcDbEntity
  8
0
  6
Continuous
 62
     1
100
AcDbLine
 10
8887.16339871174
 20
-5799.860470576408
 30
0.0
 11
8901.733398711746
 21
-5777.992970576386
 31
0.0
  0
CIRCLE
  5
5FC
330
6C
100
AcDbEntity
  8
0
  6
Continuous
 62
     1
100
AcDbCircle
 10
8287.613398711735
 20
-5657.155470576363
 30
0.0
 40
7.0
  0
CIRCLE
  5
5FD
330
6C
100
AcDbEntity
  8
0
  6
Continuous
 62
     1
100
AcDbCircle
 10
8330.893398711749
 20
-5718.805470576386
 30
0.0
 40
7.0
  0
CIRCLE
  5
5FE
330
6C
100
AcDbEntity
  8
0
  6
Continuous
 62
     1
100
AcDbCircle
 10
8379.475898711739
 20
-5774.955470576351
 30
0.0
 40
7.0
  0
CIRCLE
  5
5FF
330
6C
100
AcDbEntity
  8
0
  6
Continuous
 62
     1
100
AcDbCircle
 10
8432.845898711734
 20
-5824.805470576328
 30
0.0
 40
7.0
  0
LINE
  5
600
330
6C
100
AcDbEntity
  8
0
  6
Continuous
 62
     1
100
AcDbLine
 10
8483.985898711749
 20
-5698.770470576382
 30
0.0
 11
8483.985898711749
 21
-5672.052970576384
 31
0.0
  0
LINE
  5
601
330
6C
100
AcDbEntity
  8
0
  6
Continuous
 62
     1
100
AcDbLine
 10
8483.985898711749
 20
-5698.770470576382
 30
0.0
 11
8595.723398711736
 21
-5698.770470576382
 31
0.0
  0
LINE
  5
602
330
6C
100
AcDbEntity
  8
0
  6
Continuous
 62
     1
100
AcDbLine
 10
8517.998398711744
 20
-5808.062970576364
 30
0.0
 11
8556.860898711763
 21
-5808.062970576364
 31
0.0
  0
LINE
  5
603
330
6C
100
AcDbEntity
  8
0
  6
Continuous
 62
     1
100
AcDbLine
 10
8517.998398711744
 20
-5808.062970576364
 30
0.0
 11
8595.723398711736
 21
-5698.770470576382
 31
0.0
  0
CIRCLE
  5
604
330
6C
100
AcDbEntity
  8
0
  6
Continuous
 62
     1
100
AcDbCircle
 10
8176.568398711767
 20
-5369.130470576369
 30
0.0
 40
7.0
  0
CIRCLE
  5
605
330
6C
100
AcDbEntity
  8
0
  6
Continuous
 62
     1
100
AcDbCircle
 10
8218.980898711743
 20
-5519.805470576415
 30
0.0
 40
7.0
  0
CIRCLE
  5
606
330
6C
100
AcDbEntity
  8
0
  6
Continuous
 62
     1
100
AcDbCircle
 10
8194.343398711746
 20
-5445.805470576328
 30
0.0
 40
7.0
  0
ARC
  5
607
330
6C
100
AcDbEntity
  8
0
  6
Continuous
 62
     1
100
AcDbCircle
 10
8372.030898711761
 20
-5585.090470576361
 30
0.0
 40
140.0375
100
AcDbArc
 50
68.99539579752154
 51
111.0046042024784
  0
ARC
  5
608
330
6C
100
AcDbEntity
  8
0
  6
Continuous
 62
     1
100
AcDbCircle
 10
8372.030898711761
 20
-5645.042970576404
 30
0.0
 40
122.26
100
AcDbArc
 50
72.93958358760784
 51
107.0604164123921
  0
ARC
  5
609
330
6C
100
AcDbEntity
  8
0
  6
Continuous
 62
     1
100
AcDbCircle
 10
8372.030898711761
 20
-5439.36047057635
 30
0.0
 40
122.26
100
AcDbArc
 50
252.9395835876079
 51
287.0604164123922
  0
ARC
  5
60A
330
6C
100
AcDbEntity
  8
0
  6
Continuous
 62
     1
100
AcDbCircle
 10
8372.030898711761
 20
-5569.935470576391
 30
0.0
 40
100.61
100
AcDbArc
 50
71.29167790559697
 51
108.708322094403
  0
ARC
  5
60B
330
6C
100
AcDbEntity
  8
0
  6
Continuous
 62
     1
100
AcDbCircle
 10
8372.030898711761
 20
-5397.877970576367
 30
0.0
 40
100.61
100
AcDbArc
 50
251.291677905597
 51
288.708322094403
  0
ARC
  5
60C
330
6C
100
AcDbEntity
  8
0
  6
Continuous
 62
     1
100
AcDbCircle
 10
8372.030898711761
 20
-5470.602970576344
 30
0.0
 40
120.1825
100
AcDbArc
 50
238.5988920748659
 51
301.4011079251341
  0
ARC
  5
60D
330
6C
100
AcDbEntity
  8
0
  6
Continuous
 62
     1
100
AcDbCircle
 10
8342.888398711759
 20
-5483.917970576404
 30
0.0
 40
9.72
100
AcDbArc
 50
108.6345848773269
 51
251.3231019469564
  0
ARC
  5
60E
330
6C
100
AcDbEntity
  8
0
  6
Continuous
 62
     1
100
AcDbCircle
 10
8340.463398711742
 20
-5542.200470576375
 30
0.0
 40
14.57
100
AcDbArc
 50
107.035049449284
 51
252.9678190020447
  0
CIRCLE
  5
60F
330
6C
100
AcDbEntity
  8
0
  6
Continuous
 62
     1
100
AcDbCircle
 10
8250.655898711746
 20
-5590.255470576398
 30
0.0
 40
11.225
  0
ARC
  5
610
330
6C
100
AcDbEntity
  8
0
  6
Continuous
 62
     1
100
AcDbCircle
 10
8328.318398711752
 20
-5542.200470576375
 30
0.0
 40
36.43750000000001
100
AcDbArc
 50
113.5917536969073
 51
238.6087062424649
  0
ARC
  5
611
330
6C
100
AcDbEntity
  8
0
  6
Continuous
 62
     1
100
AcDbCircle
 10
8333.168398711743
 20
-5483.917970576404
 30
0.0
 40
31.56750000000001
100
AcDbArc
 50
110.9763830645169
 51
232.0709367324569
  0
ARC
  5
612
330
6C
100
AcDbEntity
  8
0
  6
Continuous
 62
     1
100
AcDbCircle
 10
8415.743398711754
 20
-5542.200470576375
 30
0.0
 40
36.43750000000001
100
AcDbArc
 50
301.3912937575351
 51
66.40824630309268
  0
ARC
  5
613
330
6C
100
AcDbEntity
  8
0
  6
Continuous
 62
     1
100
AcDbCircle
 10
8401.173398711748
 20
-5483.917970576404
 30
0.0
 40
9.72
100
AcDbArc
 50
288.6768980530436
 51
71.36541512267304
  0
ARC
  5
614
330
6C
100
AcDbEntity
  8
0
  6
Continuous
 62
     1
100
AcDbCircle
 10
8403.598398711736
 20
-5542.200470576375
 30
0.0
 40
14.57
100
AcDbArc
 50
287.0321809979553
 51
72.96495055071597
  0
ARC
  5
615
330
6C
100
AcDbEntity
  8
0
  6
Continuous
 62
     1
100
AcDbCircle
 10
8410.893398711749
 20
-5483.917970576404
 30
0.0
 40
31.56750000000001
100
AcDbArc
 50
307.9290632675431
 51
69.02361693548313
  0
LINE
  5
616
330
6C
100
AcDbEntity
  8
0
  6
Continuous
 62
     1
100
AcDbLine
 10
8483.985898711749
 20
-5672.052970576384
 30
0.0
 11
8634.588398711741
 21
-5672.052970576384
 31
0.0
  0
LINE
  5
617
330
6C
100
AcDbEntity
  8
0
  6
Continuous
 62
     1
100
AcDbLine
 10
8556.860898711763
 20
-5808.062970576364
 30
0.0
 11
8634.588398711741
 21
-5698.770470576382
 31
0.0
  0
LINE
  5
618
330
6C
100
AcDbEntity
  8
4
100
AcDbLine
 10
8719.158398711748
 20
-6085.930470576328
 30
0.0
 11
8759.158398711749
 21
-6085.930470576328
 31
0.0
  0
CIRCLE
  5
619
330
6C
100
AcDbEntity
  8
0
  6
Continuous
 62
     1
100
AcDbCircle
 10
8682.348398711736
 20
-5953.105470576375
 30
0.0
 40
7.0
  0
ARC
  5
61A
330
6C
100
AcDbEntity
  8
0
  6
Continuous
 62
     1
100
AcDbCircle
 10
8817.750898711732
 20
-5739.952970576378
 30
0.0
 40
162.0975
100
AcDbArc
 50
264.6774185827978
 51
292.6744504675708
  0
ARC
  5
61B
330
6C
100
AcDbEntity
  8
0
  6
Continuous
 62
     1
100
AcDbCircle
 10
8819.158398711747
 20
-5784.552970576384
 30
0.0
 40
88.35500000000001
100
AcDbArc
 50
247.0826114168124
 51
292.9308362633481
  0
CIRCLE
  5
61C
330
6C
100
AcDbEntity
  8
0
  6
Continuous
 62
     1
100
AcDbCircle
 10
8818.833398711751
 20
-5969.080470576351
 30
0.0
 40
11.225
  0
CIRCLE
  5
61D
330
6C
100
AcDbEntity
  8
0
  6
Continuous
 62
     1
100
AcDbCircle
 10
8750.200898711744
 20
-5965.480470576345
 30
0.0
 40
7.0
  0
CIRCLE
  5
61E
330
6C
100
AcDbEntity
  8
0
  6
Continuous
 62
     1
100
AcDbCircle
 10
8887.465898711729
 20
-5965.480470576345
 30
0.0
 40
7.0
  0
CIRCLE
  5
61F
330
6C
100
AcDbEntity
  8
0
  6
Continuous
 62
     1
100
AcDbCircle
 10
8490.803398711753
 20
-5867.555470576387
 30
0.0
 40
11.225
  0
CIRCLE
  5
620
330
6C
100
AcDbEntity
  8
0
  6
Continuous
 62
     1
100
AcDbCircle
 10
8551.773398711754
 20
-5904.130470576397
 30
0.0
 40
7.0
  0
CIRCLE
  5
621
330
6C
100
AcDbEntity
  8
0
  6
Continuous
 62
     1
100
AcDbCircle
 10
8615.945898711741
 20
-5932.555470576357
 30
0.0
 40
7.0
  0
ARC
  5
622
330
6C
100
AcDbEntity
  8
0
  6
Continuous
 62
     1
100
AcDbCircle
 10
8790.015898711747
 20
-5853.487970576352
 30
0.0
 40
13.3575
100
AcDbArc
 50
112.8898983288099
 51
247.0769552606055
  0
ARC
  5
623
330
6C
100
AcDbEntity
  8
0
  6
Continuous
 62
     1
100
AcDbCircle
 10
8809.458398711752
 20
-5829.002970576337
 30
0.0
 40
72.85500000000002
100
AcDbArc
 50
91.31191780074551
 51
264.6744254461319
  0
ARC
  5
624
330
6C
100
AcDbEntity
  8
0
  6
Continuous
 62
     1
100
AcDbCircle
 10
8860.44589871174
 20
-5853.295470576377
 30
0.0
 40
41.2875
100
AcDbArc
 50
298.6514516896324
 51
80.00184138096877
  0
ARC
  5
625
330
6C
100
AcDbEntity
  8
0
  6
Continuous
 62
     1
100
AcDbCircle
 10
8848.320898711738
 20
-5853.487970576352
 30
0.0
 40
13.3575
100
AcDbArc
 50
292.9328550244834
 51
67.10030241206273
  0
CIRCLE
  5
626
330
6C
100
AcDbEntity
  8
0
  6
Continuous
 62
     1
100
AcDbCircle
 10
9350.053398711752
 20
-5657.155470576363
 30
0.0
 40
7.0
  0
CIRCLE
  5
627
330
6C
100
AcDbEntity
  8
0
  6
Continuous
 62
     1
100
AcDbCircle
 10
9204.820898711739
 20
-5824.805470576328
 30
0.0
 40
7.0
  0
ARC
  5
628
330
6C
100
AcDbEntity
  8
0
  6
Continuous
 62
     1
100
AcDbCircle
 10
9098.040898711742
 20
-5807.520470576324
 30
0.0
 40
68.93500000000002
100
AcDbArc
 50
49.5231661108222
 51
119.1527512523909
  0
ARC
  5
629
330
6C
100
AcDbEntity
  8
0
  6
Continuous
 62
     1
100
AcDbCircle
 10
9103.278398711744
 20
-5689.632970576371
 30
0.0
 40
93.27000000000001
100
AcDbArc
 50
233.2397630356421
 51
292.9275303027585
  0
ARC
  5
62A
330
6C
100
AcDbEntity
  8
0
  6
Continuous
 62
     1
100
AcDbCircle
 10
9114.255898711752
 20
-5652.957970576354
 30
0.0
 40
155.3425
100
AcDbArc
 50
237.3597878427479
 51
284.6911503493984
  0
LINE
  5
62B
330
6C
100
AcDbEntity
  8
0
  6
Continuous
 62
     1
100
AcDbLine
 10
9066.905898711747
 20
-5696.345470576336
 30
0.0
 11
9173.773398711754
 21
-5696.345470576336
 31
0.0
  0
ARC
  5
62C
330
6C
100
AcDbEntity
  8
0
  6
Continuous
 62
     1
100
AcDbCircle
 10
9107.890898711747
 20
-5799.857970576376
 30
0.0
 40
89.18000000000001
100
AcDbArc
 50
48.09319914287021
 51
117.3550895755544
  0
LINE
  5
62D
330
6C
100
AcDbEntity
  8
0
  6
Continuous
 62
     1
100
AcDbLine
 10
9037.763398711744
 20
-5667.202970576378
 30
0.0
 11
9173.773398711754
 21
-5667.202970576378
 31
0.0
  0
LINE
  5
62E
330
6C
100
AcDbEntity
  8
0
  6
Continuous
 62
     1
100
AcDbLine
 10
9066.905898711747
 20
-5720.637970576376
 30
0.0
 11
9066.905898711747
 21
-5696.345470576336
 31
0.0
  0
LINE
  5
62F
330
6C
100
AcDbEntity
  8
0
  6
Continuous
 62
     1
100
AcDbLine
 10
9037.763398711744
 20
-5730.337970576358
 30
0.0
 11
9037.763398711744
 21
-5667.202970576378
 31
0.0
  0
LINE
  5
630
330
6C
100
AcDbEntity
  8
0
  6
Continuous
 62
     1
100
AcDbLine
 10
9030.468398711761
 20
-5783.770470576325
 30
0.0
 11
9047.463398711741
 21
-5764.35047057634
 31
0.0
  0
LINE
  5
631
330
6C
100
AcDbEntity
  8
0
  6
Continuous
 62
     1
100
AcDbLine
 10
9037.763398711744
 20
-5730.337970576358
 30
0.0
 11
9064.480898711742
 21
-5747.355470576374
 31
0.0
  0
LINE
  5
632
330
6C
100
AcDbEntity
  8
0
  6
Continuous
 62
     1
100
AcDbLine
 10
9173.773398711754
 20
-5696.345470576336
 30
0.0
 11
9173.773398711754
 21
-5667.202970576378
 31
0.0
  0
ARC
  5
633
330
6C
100
AcDbEntity
  8
0
  6
Continuous
 62
     1
100
AcDbCircle
 10
9134.910898711749
 20
-5764.35047057634
 30
0.0
 40
12.145
100
AcDbArc
 50
292.8044166676386
 51
49.62916758257691
  0
ARC
  5
634
330
6C
100
AcDbEntity
  8
0
  6
Continuous
 62
     1
100
AcDbCircle
 10
9139.760898711756
 20
-5764.35047057634
 30
0.0
 40
41.2875
100
AcDbArc
 50
289.6608207911056
 51
48.09663329623091
  0
CIRCLE
  5
635
330
6C
100
AcDbEntity
  8
0
  6
Continuous
 62
     1
100
AcDbCircle
 10
9306.773398711753
 20
-5718.805470576386
 30
0.0
 40
7.0
  0
CIRCLE
  5
636
330
6C
100
AcDbEntity
  8
0
  6
Continuous
 62
     1
100
AcDbCircle
 10
9258.190898711735
 20
-5774.955470576351
 30
0.0
 40
7.0
  0
LINE
  5
637
330
6C
100
AcDbEntity
  8
0
  6
Continuous
 62
     1
100
AcDbLine
 10
9173.413398711753
 20
-5532.600470576399
 30
0.0
 11
9275.408398711748
 21
-5445.175470576323
 31
0.0
  0
LINE
  5
638
330
6C
100
AcDbEntity
  8
0
  6
Continuous
 62
     1
100
AcDbLine
 10
9173.413398711753
 20
-5561.742970576357
 30
0.0
 11
9285.130898711752
 21
-5561.742970576357
 31
0.0
  0
LINE
  5
639
330
6C
100
AcDbEntity
  8
0
  6
Continuous
 62
     1
100
AcDbLine
 10
9210.71839871176
 20
-5532.600470576399
 30
0.0
 11
9285.130898711752
 21
-5532.600470576399
 31
0.0
  0
LINE
  5
63A
330
6C
100
AcDbEntity
  8
0
  6
Continuous
 62
     1
100
AcDbLine
 10
9210.71839871176
 20
-5532.600470576399
 30
0.0
 11
9285.130898711752
 21
-5468.817970576339
 31
0.0
  0
LINE
  5
63B
330
6C
100
AcDbEntity
  8
0
  6
Continuous
 62
     1
100
AcDbLine
 10
9173.413398711753
 20
-5561.742970576357
 30
0.0
 11
9173.413398711753
 21
-5532.600470576399
 31
0.0
  0
LINE
  5
63C
330
6C
100
AcDbEntity
  8
0
  6
Continuous
 62
     1
100
AcDbLine
 10
9314.273398711753
 20
-5561.742970576357
 30
0.0
 11
9338.563398711746
 21
-5561.742970576357
 31
0.0
  0
LINE
  5
63D
330
6C
100
AcDbEntity
  8
0
  6
Continuous
 62
     1
100
AcDbLine
 10
9314.273398711753
 20
-5532.600470576399
 30
0.0
 11
9338.563398711746
 21
-5532.600470576399
 31
0.0
  0
LINE
  5
63E
330
6C
100
AcDbEntity
  8
0
  6
Continuous
 62
     1
100
AcDbLine
 10
9314.273398711753
 20
-5581.185470576333
 30
0.0
 11
9314.273398711753
 21
-5561.742970576357
 31
0.0
  0
LINE
  5
63F
330
6C
100
AcDbEntity
  8
0
  6
Continuous
 62
     1
100
AcDbLine
 10
9285.130898711752
 20
-5581.185470576333
 30
0.0
 11
9285.130898711752
 21
-5561.742970576357
 31
0.0
  0
LINE
  5
640
330
6C
100
AcDbEntity
  8
0
  6
Continuous
 62
     1
100
AcDbLine
 10
9285.130898711752
 20
-5581.185470576333
 30
0.0
 11
9314.273398711753
 21
-5581.185470576333
 31
0.0
  0
LINE
  5
641
330
6C
100
AcDbEntity
  8
0
  6
Continuous
 62
     1
100
AcDbLine
 10
9314.273398711753
 20
-5532.600470576399
 30
0.0
 11
9314.273398711753
 21
-5445.175470576323
 31
0.0
  0
LINE
  5
642
330
6C
100
AcDbEntity
  8
0
  6
Continuous
 62
     1
100
AcDbLine
 10
9285.130898711752
 20
-5532.600470576399
 30
0.0
 11
9285.130898711752
 21
-5468.817970576339
 31
0.0
  0
LINE
  5
643
330
6C
100
AcDbEntity
  8
0
  6
Continuous
 62
     1
100
AcDbLine
 10
9275.408398711748
 20
-5445.175470576323
 30
0.0
 11
9314.273398711753
 21
-5445.175470576323
 31
0.0
  0
CIRCLE
  5
644
330
6C
100
AcDbEntity
  8
0
  6
Continuous
 62
     1
100
AcDbCircle
 10
9418.685898711744
 20
-5519.805470576415
 30
0.0
 40
7.0
  0
CIRCLE
  5
645
330
6C
100
AcDbEntity
  8
0
  6
Continuous
 62
     1
100
AcDbCircle
 10
9443.323398711742
 20
-5445.805470576328
 30
0.0
 40
7.0
  0
LINE
  5
646
330
6C
100
AcDbEntity
  8
0
  6
Continuous
 62
     1
100
AcDbLine
 10
9338.563398711746
 20
-5561.742970576357
 30
0.0
 11
9338.563398711746
 21
-5532.600470576399
 31
0.0
  0
CIRCLE
  5
647
330
6C
100
AcDbEntity
  8
0
  6
Continuous
 62
     1
100
AcDbCircle
 10
9387.010898711755
 20
-5590.255470576398
 30
0.0
 40
11.225
  0
CIRCLE
  5
648
330
6C
100
AcDbEntity
  8
0
  6
Continuous
 62
     1
100
AcDbCircle
 10
9461.098398711765
 20
-5369.130470576369
 30
0.0
 40
7.0
  0
CIRCLE
  5
649
330
6C
100
AcDbEntity
  8
0
  6
Continuous
 62
     1
100
AcDbCircle
 10
8955.318398711737
 20
-5953.105470576375
 30
0.0
 40
7.0
  0
CIRCLE
  5
64A
330
6C
100
AcDbEntity
  8
0
  6
Continuous
 62
     1
100
AcDbCircle
 10
9085.89339871175
 20
-5904.130470576397
 30
0.0
 40
7.0
  0
CIRCLE
  5
64B
330
6C
100
AcDbEntity
  8
0
  6
Continuous
 62
     1
100
AcDbCircle
 10
9021.720898711748
 20
-5932.555470576357
 30
0.0
 40
7.0
  0
CIRCLE
  5
64C
330
6C
100
AcDbEntity
  8
0
  6
Continuous
 62
     1
100
AcDbCircle
 10
9146.863398711749
 20
-5867.555470576387
 30
0.0
 40
11.225
  0
LINE
  5
64D
330
6C
100
AcDbEntity
  8
4
100
AcDbLine
 10
7439.158398711748
 20
-4335.930470576328
 30
0.0
 11
7519.158398711748
 21
-4335.930470576328
 31
0.0
  0
LINE
  5
64E
330
6C
100
AcDbEntity
  8
4
100
AcDbLine
 10
7319.158398711748
 20
-4348.430470576327
 30
0.0
 11
7439.158398711748
 21
-4335.930470576328
 31
0.0
  0
LINE
  5
64F
330
6C
100
AcDbEntity
  8
4
100
AcDbLine
 10
7519.158398711748
 20
-4373.430470576328
 30
0.0
 11
7719.158398711748
 21
-4435.930470576328
 31
0.0
  0
LINE
  5
650
330
6C
100
AcDbEntity
  8
4
100
AcDbLine
 10
7719.158398711748
 20
-4873.430470576328
 30
0.0
 11
8014.973398711751
 21
-4873.430470576328
 31
0.0
  0
LINE
  5
651
330
6C
100
AcDbEntity
  8
0
  6
Continuous
 62
     1
100
AcDbLine
 10
8863.845898711749
 20
-5195.030470576362
 30
0.0
 11
8950.598398711751
 21
-5248.055470576328
 31
0.0
  0
LINE
  5
652
330
6C
100
AcDbEntity
  8
0
  6
Continuous
 62
     1
100
AcDbLine
 10
8912.733398711745
 20
-5323.805470576386
 30
0.0
 11
8950.598398711751
 21
-5248.055470576328
 31
0.0
  0
LINE
  5
653
330
6C
100
AcDbEntity
  8
0
  6
Continuous
 62
     1
100
AcDbLine
 10
8709.693398711737
 20
-5296.655470576333
 30
0.0
 11
9276.895898711751
 21
-4664.680470576357
 31
0.0
  0
LINE
  5
654
330
6C
100
AcDbEntity
  8
0
  6
Continuous
 62
     1
100
AcDbLine
 10
8719.585898711754
 20
-4563.717970576392
 30
0.0
 11
8734.158398711748
 21
-4563.717970576392
 31
0.0
  0
ARC
  5
655
330
6C
100
AcDbEntity
  8
0
  6
Continuous
 62
     1
100
AcDbCircle
 10
8705.298398711763
 20
-4510.240470576383
 30
0.0
 40
36.43750000000001
100
AcDbArc
 50
293.0886318152566
 51
336.3611697111017
  0
LINE
  5
656
330
6C
100
AcDbEntity
  8
4
100
AcDbLine
 10
8719.158398711748
 20
-4335.930470576328
 30
0.0
 11
8759.158398711749
 21
-4335.930470576328
 31
0.0
  0
LINE
  5
657
330
6C
100
AcDbEntity
  8
0
  6
Continuous
 62
     1
100
AcDbLine
 10
8719.585898711754
 20
-4563.175470576353
 30
0.0
 11
8719.585898711754
 21
-4543.755470576368
 31
0.0
  0
CIRCLE
  5
658
330
6C
100
AcDbEntity
  8
0
  6
Continuous
 62
     1
100
AcDbCircle
 10
8682.348398711736
 20
-4469.855470576404
 30
0.0
 40
7.0
  0
LINE
  5
659
330
6C
100
AcDbEntity
  8
0
  6
Continuous
 62
     1
100
AcDbLine
 10
8815.953398711746
 20
-4616.912970576341
 30
0.0
 11
8879.693398711767
 21
-4581.297970576379
 31
0.0
  0
LINE
  5
65A
330
6C
100
AcDbEntity
  8
0
  6
Continuous
 62
     1
100
AcDbLine
 10
8826.80089871175
 20
-4641.442970576398
 30
0.0
 11
8892.705898711749
 21
-4604.615470576326
 31
0.0
  0
ARC
  5
65B
330
6C
100
AcDbEntity
  8
0
  6
Continuous
 62
     1
100
AcDbCircle
 10
8850.118398711755
 20
-4600.155470576392
 30
0.0
 40
53.435
100
AcDbArc
 50
54.52439170168162
 51
147.0160132303632
  0
ARC
  5
65C
330
6C
100
AcDbEntity
  8
0
  6
Continuous
 62
     1
100
AcDbCircle
 10
8850.118398711755
 20
-4600.155470576392
 30
0.0
 40
80.15
100
AcDbArc
 50
54.52717873843942
 51
147.0260986149328
  0
LINE
  5
65D
330
6C
100
AcDbEntity
  8
0
  6
Continuous
 62
     1
100
AcDbLine
 10
8787.590898711744
 20
-4665.73547057635
 30
0.0
 11
8913.880898711751
 21
-4665.73547057635
 31
0.0
  0
LINE
  5
65E
330
6C
100
AcDbEntity
  8
0
  6
Continuous
 62
     1
100
AcDbLine
 10
8826.80089871175
 20
-4641.442970576398
 30
0.0
 11
8913.880898711751
 21
-4641.442970576398
 31
0.0
  0
CIRCLE
  5
65F
330
6C
100
AcDbEntity
  8
0
  6
Continuous
 62
     1
100
AcDbCircle
 10
8818.833398711751
 20
-4453.880470576339
 30
0.0
 40
11.225
  0
LINE
  5
660
330
6C
100
AcDbEntity
  8
0
  6
Continuous
 62
     1
100
AcDbLine
 10
8738.683398711756
 20
-4524.852970576401
 30
0.0
 11
8758.103398711741
 21
-4524.852970576401
 31
0.0
  0
CIRCLE
  5
661
330
6C
100
AcDbEntity
  8
0
  6
Continuous
 62
     1
100
AcDbCircle
 10
8750.200898711744
 20
-4457.480470576345
 30
0.0
 40
7.0
  0
LINE
  5
662
330
6C
100
AcDbEntity
  8
0
  6
Continuous
 62
     1
100
AcDbLine
 10
8782.740898711738
 20
-4556.442970576369
 30
0.0
 11
8804.588398711741
 21
-4571.012970576375
 31
0.0
  0
LINE
  5
663
330
6C
100
AcDbEntity
  8
0
  6
Continuous
 62
     1
100
AcDbLine
 10
8733.810898711759
 20
-4665.73547057635
 30
0.0
 11
8758.103398711741
 21
-4665.73547057635
 31
0.0
  0
LINE
  5
664
330
6C
100
AcDbEntity
  8
0
  6
Continuous
 62
     1
100
AcDbLine
 10
8734.158398711748
 20
-4665.73547057635
 30
0.0
 11
8734.158398711748
 21
-4563.717970576392
 31
0.0
  0
LINE
  5
665
330
6C
100
AcDbEntity
  8
0
  6
Continuous
 62
     1
100
AcDbLine
 10
8758.103398711741
 20
-4665.73547057635
 30
0.0
 11
8758.103398711741
 21
-4524.852970576401
 31
0.0
  0
ARC
  5
666
330
6C
100
AcDbEntity
  8
0
  6
Continuous
 62
     1
100
AcDbCircle
 10
8843.213398711757
 20
-4665.73547057635
 30
0.0
 40
55.85750000000001
100
AcDbArc
 50
119.1767686943221
 51
180.0
  0
LINE
  5
667
330
6C
100
AcDbEntity
  8
0
  6
Continuous
 62
     1
100
AcDbLine
 10
8913.880898711751
 20
-4665.73547057635
 30
0.0
 11
8913.880898711751
 21
-4641.442970576398
 31
0.0
  0
ARC
  5
668
330
6C
100
AcDbEntity
  8
0
  6
Continuous
 62
     1
100
AcDbCircle
 10
8872.593398711762
 20
-4568.565470576337
 30
0.0
 40
14.57
100
AcDbArc
 50
299.1452664330217
 51
54.40422100592182
  0
CIRCLE
  5
669
330
6C
100
AcDbEntity
  8
0
  6
Continuous
 62
     1
100
AcDbCircle
 10
8887.465898711729
 20
-4457.480470576345
 30
0.0
 40
7.0
  0
ARC
  5
66A
330
6C
100
AcDbEntity
  8
0
  6
Continuous
 62
     1
100
AcDbCircle
 10
8872.593398711762
 20
-4568.565470576337
 30
0.0
 40
41.2875
100
AcDbArc
 50
299.1573963346429
 51
54.48729892138163
  0
CIRCLE
  5
66B
330
6C
100
AcDbEntity
  8
0
  6
Continuous
 62
     1
100
AcDbCircle
 10
8819.158398711747
 20
-5210.930470576328
 30
0.0
 40
16.375
  0
LINE
  5
66C
330
6C
100
AcDbEntity
  8
0
  6
Continuous
 62
     1
100
AcDbLine
 10
8815.23839871175
 20
-5253.180470576386
 30
0.0
 11
8912.733398711745
 21
-5323.805470576386
 31
0.0
  0
LINE
  5
66D
330
6C
100
AcDbEntity
  8
0
  6
Continuous
 62
     1
100
AcDbLine
 10
8634.588398711741
 20
-4744.957970576382
 30
0.0
 11
8634.588398711741
 21
-4604.077970576349
 31
0.0
  0
LINE
  5
66E
330
6C
100
AcDbEntity
  8
0
  6
Continuous
 62
     1
100
AcDbLine
 10
8474.610898711748
 20
-4642.940470576395
 30
0.0
 11
8489.180898711754
 21
-4642.940470576395
 31
0.0
  0
ARC
  5
66F
330
6C
100
AcDbEntity
  8
0
  6
Continuous
 62
     1
100
AcDbCircle
 10
8460.345898711763
 20
-4589.462970576387
 30
0.0
 40
36.43750000000001
100
AcDbArc
 50
293.0560742686557
 51
336.3417971524921
  0
CIRCLE
  5
670
330
6C
100
AcDbEntity
  8
0
  6
Continuous
 62
     1
100
AcDbCircle
 10
8490.803398711753
 20
-4555.405470576391
 30
0.0
 40
11.225
  0
LINE
  5
671
330
6C
100
AcDbEntity
  8
0
  6
Continuous
 62
     1
100
AcDbLine
 10
8474.610898711748
 20
-4642.397970576385
 30
0.0
 11
8474.610898711748
 21
-4622.977970576372
 31
0.0
  0
CIRCLE
  5
672
330
6C
100
AcDbEntity
  8
0
  6
Continuous
 62
     1
100
AcDbCircle
 10
8379.475898711739
 20
-4648.005470576339
 30
0.0
 40
7.0
  0
CIRCLE
  5
673
330
6C
100
AcDbEntity
  8
0
  6
Continuous
 62
     1
100
AcDbCircle
 10
8432.845898711734
 20
-4598.155470576362
 30
0.0
 40
7.0
  0
LINE
  5
674
330
6C
100
AcDbEntity
  8
0
  6
Continuous
 62
     1
100
AcDbLine
 10
8596.048398711749
 20
-4642.940470576395
 30
0.0
 11
8610.640898711746
 21
-4642.940470576395
 31
0.0
  0
ARC
  5
675
330
6C
100
AcDbEntity
  8
0
  6
Continuous
 62
     1
100
AcDbCircle
 10
8581.780898711746
 20
-4589.462970576387
 30
0.0
 40
36.43750000000001
100
AcDbArc
 50
293.0596925523622
 51
336.3449531272049
  0
LINE
  5
676
330
6C
100
AcDbEntity
  8
0
  6
Continuous
 62
     1
100
AcDbLine
 10
8596.048398711749
 20
-4642.397970576385
 30
0.0
 11
8596.048398711749
 21
-4622.977970576372
 31
0.0
  0
LINE
  5
677
330
6C
100
AcDbEntity
  8
0
  6
Continuous
 62
     1
100
AcDbLine
 10
8493.70589871175
 20
-4604.077970576349
 30
0.0
 11
8513.14839871174
 21
-4604.077970576349
 31
0.0
  0
CIRCLE
  5
678
330
6C
100
AcDbEntity
  8
0
  6
Continuous
 62
     1
100
AcDbCircle
 10
8551.773398711754
 20
-4518.83047057638
 30
0.0
 40
7.0
  0
CIRCLE
  5
679
330
6C
100
AcDbEntity
  8
0
  6
Continuous
 62
     1
100
AcDbCircle
 10
8615.945898711741
 20
-4490.405470576333
 30
0.0
 40
7.0
  0
ARC
  5
67A
330
6C
100
AcDbEntity
  8
0
  6
Continuous
 62
     1
100
AcDbCircle
 10
8329.543398711743
 20
-5071.780470576363
 30
0.0
 40
224.35
100
AcDbArc
 50
234.8861119080618
 51
263.6146823726199
  0
ARC
  5
67B
330
6C
100
AcDbEntity
  8
0
  6
Continuous
 62
     1
100
AcDbCircle
 10
8259.318398711767
 20
-5175.480470576374
 30
0.0
 40
47.675
100
AcDbArc
 50
110.9748974319047
 51
252.3135395336754
  0
ARC
  5
67C
330
6C
100
AcDbEntity
  8
0
  6
Continuous
 62
     1
100
AcDbCircle
 10
8312.893398711748
 20
-5090.330470576409
 30
0.0
 40
169.55
100
AcDbArc
 50
236.9917139775839
 51
269.2989366994301
  0
LINE
  5
67D
330
6C
100
AcDbEntity
  8
0
  6
Continuous
 62
     1
100
AcDbLine
 10
8200.49339871174
 20
-5255.305470576357
 30
0.0
 11
8220.51839871175
 21
-5232.530470576363
 31
0.0
  0
CIRCLE
  5
67E
330
6C
100
AcDbEntity
  8
0
  6
Continuous
 62
     1
100
AcDbCircle
 10
8165.785898711765
 20
-5290.730470576403
 30
0.0
 40
7.0
  0
CIRCLE
  5
67F
330
6C
100
AcDbEntity
  8
0
  6
Continuous
 62
     1
100
AcDbCircle
 10
8218.980898711743
 20
-4903.155470576363
 30
0.0
 40
7.0
  0
CIRCLE
  5
680
330
6C
100
AcDbEntity
  8
0
  6
Continuous
 62
     1
100
AcDbCircle
 10
8165.785898711765
 20
-5132.230470576375
 30
0.0
 40
7.0
  0
CIRCLE
  5
681
330
6C
100
AcDbEntity
  8
0
  6
Continuous
 62
     1
100
AcDbCircle
 10
8176.568398711767
 20
-5053.830470576322
 30
0.0
 40
7.0
  0
CIRCLE
  5
682
330
6C
100
AcDbEntity
  8
0
  6
Continuous
 62
     1
100
AcDbCircle
 10
8162.775898711741
 20
-5211.480470576345
 30
0.0
 40
11.225
  0
CIRCLE
  5
683
330
6C
100
AcDbEntity
  8
0
  6
Continuous
 62
     1
100
AcDbCircle
 10
8194.343398711746
 20
-4977.155470576363
 30
0.0
 40
7.0
  0
CIRCLE
  5
684
330
6C
100
AcDbEntity
  8
0
  6
Continuous
 62
     1
100
AcDbCircle
 10
8425.465898711744
 20
-4914.407970576336
 30
0.0
 40
68.00500000000001
  0
ARC
  5
685
330
6C
100
AcDbEntity
  8
0
  6
Continuous
 62
     1
100
AcDbCircle
 10
8323.043398711758
 20
-4975.180470576415
 30
0.0
 40
258.075
100
AcDbArc
 50
252.3445852672142
 51
277.5029531817434
  0
ARC
  5
686
330
6C
100
AcDbEntity
  8
0
  6
Continuous
 62
     1
100
AcDbCircle
 10
8313.943398711751
 20
-5211.155470576363
 30
0.0
 40
84.12500000000001
100
AcDbArc
 50
263.6165462899942
 51
76.9887790681674
  0
ARC
  5
687
330
6C
100
AcDbEntity
  8
0
  6
Continuous
 62
     1
100
AcDbCircle
 10
8304.318398711737
 20
-5198.530470576334
 30
0.0
 40
61.70000000000001
100
AcDbArc
 50
276.0454497856531
 51
328.1841171967202
  0
LINE
  5
688
330
6C
100
AcDbEntity
  8
0
  6
Continuous
 62
     1
100
AcDbLine
 10
8356.46839871176
 20
-5231.45547057641
 30
0.0
 11
8356.518398711749
 21
-5231.130470576339
 31
0.0
  0
LINE
  5
689
330
6C
100
AcDbEntity
  8
0
  6
Continuous
 62
     1
100
AcDbLine
 10
8356.518398711749
 20
-5231.055470576328
 30
0.0
 11
8356.74339871174
 21
-5231.055470576328
 31
0.0
  0
LINE
  5
68A
330
6C
100
AcDbEntity
  8
0
  6
Continuous
 62
     1
100
AcDbLine
 10
8318.595898711748
 20
-4841.555470576386
 30
0.0
 11
8338.018398711749
 21
-4841.555470576386
 31
0.0
  0
LINE
  5
68B
330
6C
100
AcDbEntity
  8
0
  6
Continuous
 62
     1
100
AcDbLine
 10
8338.018398711749
 20
-4982.43547057639
 30
0.0
 11
8338.018398711749
 21
-4841.555470576386
 31
0.0
  0
LINE
  5
68C
330
6C
100
AcDbEntity
  8
0
  6
Continuous
 62
     1
100
AcDbLine
 10
8314.070898711754
 20
-4982.43547057639
 30
0.0
 11
8314.070898711754
 21
-4880.417970576345
 31
0.0
  0
LINE
  5
68D
330
6C
100
AcDbEntity
  8
0
  6
Continuous
 62
     1
100
AcDbLine
 10
8313.748398711759
 20
-4982.43547057639
 30
0.0
 11
8338.018398711749
 21
-4982.43547057639
 31
0.0
  0
CIRCLE
  5
68E
330
6C
100
AcDbEntity
  8
0
  6
Continuous
 62
     1
100
AcDbCircle
 10
8250.655898711746
 20
-4832.705470576381
 30
0.0
 40
11.225
  0
LINE
  5
68F
330
6C
100
AcDbEntity
  8
0
  6
Continuous
 62
     1
100
AcDbLine
 10
8299.500898711746
 20
-4879.875470576394
 30
0.0
 11
8299.500898711746
 21
-4860.455470576409
 31
0.0
  0
LINE
  5
690
330
6C
100
AcDbEntity
  8
0
  6
Continuous
 62
     1
100
AcDbLine
 10
8299.500898711746
 20
-4880.417970576345
 30
0.0
 11
8314.070898711754
 21
-4880.417970576345
 31
0.0
  0
ARC
  5
691
330
6C
100
AcDbEntity
  8
0
  6
Continuous
 62
     1
100
AcDbCircle
 10
8285.233398711746
 20
-4826.940470576337
 30
0.0
 40
36.43750000000001
100
AcDbArc
 50
293.0596925523622
 51
336.3433752404735
  0
ARC
  5
692
330
6C
100
AcDbEntity
  8
0
  6
Continuous
 62
     1
100
AcDbCircle
 10
8339.918398711757
 20
-5186.130470576369
 30
0.0
 40
15.425
100
AcDbArc
 50
285.3117590546147
 51
59.30523576156993
  0
ARC
  5
693
330
6C
100
AcDbEntity
  8
0
  6
Continuous
 62
     1
100
AcDbCircle
 10
8273.243398711739
 20
-5177.155470576362
 30
0.0
 40
15.425
100
AcDbArc
 50
105.3117590546146
 51
239.3052357615699
  0
ARC
  5
694
330
6C
100
AcDbEntity
  8
0
  6
Continuous
 62
     1
100
AcDbCircle
 10
8290.743398711754
 20
-5311.780470576392
 30
0.0
 40
187.175
100
AcDbArc
 50
77.00423692578088
 51
105.0107885016368
  0
ARC
  5
695
330
6C
100
AcDbEntity
  8
0
  6
Continuous
 62
     1
100
AcDbCircle
 10
8295.943398711738
 20
-5260.505470576339
 30
0.0
 40
102.025
100
AcDbArc
 50
59.39052657276498
 51
105.2464896349352
  0
ARC
  5
696
330
6C
100
AcDbEntity
  8
0
  6
Continuous
 62
     1
100
AcDbCircle
 10
8317.218398711746
 20
-5102.780470576392
 30
0.0
 40
102.025
100
AcDbArc
 50
239.390526572765
 51
285.2464896349352
  0
LINE
  5
697
330
6C
100
AcDbEntity
  8
0
  6
Continuous
 62
     1
100
AcDbLine
 10
8463.070898711753
 20
-4998.080470576351
 30
0.0
 11
8481.473398711736
 21
-4961.280470576392
 31
0.0
  0
CIRCLE
  5
698
330
6C
100
AcDbEntity
  8
0
  6
Continuous
 62
     1
100
AcDbCircle
 10
8425.465898711744
 20
-4914.407970576336
 30
0.0
 40
38.8625
  0
CIRCLE
  5
699
330
6C
100
AcDbEntity
  8
0
  6
Continuous
 62
     1
100
AcDbCircle
 10
8330.893398711749
 20
-4704.155470576392
 30
0.0
 40
7.0
  0
CIRCLE
  5
69A
330
6C
100
AcDbEntity
  8
0
  6
Continuous
 62
     1
100
AcDbCircle
 10
8287.613398711735
 20
-4765.805470576415
 30
0.0
 40
7.0
  0
LINE
  5
69B
330
6C
100
AcDbEntity
  8
0
  6
Continuous
 62
     1
100
AcDbLine
 10
8488.855898711744
 20
-4744.957970576382
 30
0.0
 11
8513.14839871174
 21
-4744.957970576382
 31
0.0
  0
LINE
  5
69C
330
6C
100
AcDbEntity
  8
0
  6
Continuous
 62
     1
100
AcDbLine
 10
8489.180898711754
 20
-4744.957970576382
 30
0.0
 11
8489.180898711754
 21
-4642.940470576395
 31
0.0
  0
LINE
  5
69D
330
6C
100
AcDbEntity
  8
0
  6
Continuous
 62
     1
100
AcDbLine
 10
8513.14839871174
 20
-4744.957970576382
 30
0.0
 11
8513.14839871174
 21
-4604.077970576349
 31
0.0
  0
LINE
  5
69E
330
6C
100
AcDbEntity
  8
0
  6
Continuous
 62
     1
100
AcDbLine
 10
8610.640898711746
 20
-4744.957970576382
 30
0.0
 11
8610.640898711746
 21
-4642.940470576395
 31
0.0
  0
LINE
  5
69F
330
6C
100
AcDbEntity
  8
0
  6
Continuous
 62
     1
100
AcDbLine
 10
8481.473398711736
 20
-4961.280470576392
 30
0.0
 11
8823.205898711764
 21
-5170.180470576386
 31
0.0
  0
LINE
  5
6A0
330
6C
100
AcDbEntity
  8
0
  6
Continuous
 62
     1
100
AcDbLine
 10
8463.070898711753
 20
-4998.080470576351
 30
0.0
 11
8774.925898711749
 21
-5223.980470576345
 31
0.0
  0
LINE
  5
6A1
330
6C
100
AcDbEntity
  8
0
  6
Continuous
 62
     1
100
AcDbLine
 10
8615.14589871175
 20
-4604.077970576349
 30
0.0
 11
8634.588398711741
 21
-4604.077970576349
 31
0.0
  0
LINE
  5
6A2
330
6C
100
AcDbEntity
  8
0
  6
Continuous
 62
     1
100
AcDbLine
 10
8610.293398711744
 20
-4744.957970576382
 30
0.0
 11
8634.588398711741
 21
-4744.957970576382
 31
0.0
  0
CIRCLE
  5
6A3
330
6C
100
AcDbEntity
  8
0
  6
Continuous
 62
     1
100
AcDbCircle
 10
9204.820898711739
 20
-4598.155470576362
 30
0.0
 40
7.0
  0
CIRCLE
  5
6A4
330
6C
100
AcDbEntity
  8
0
  6
Continuous
 62
     1
100
AcDbCircle
 10
8955.318398711737
 20
-4469.855470576404
 30
0.0
 40
7.0
  0
LINE
  5
6A5
330
6C
100
AcDbEntity
  8
0
  6
Continuous
 62
     1
100
AcDbLine
 10
9086.000898711747
 20
-4594.377970576366
 30
0.0
 11
9105.423398711748
 21
-4594.377970576366
 31
0.0
  0
CIRCLE
  5
6A6
330
6C
100
AcDbEntity
  8
0
  6
Continuous
 62
     1
100
AcDbCircle
 10
9085.89339871175
 20
-4518.83047057638
 30
0.0
 40
7.0
  0
LINE
  5
6A7
330
6C
100
AcDbEntity
  8
0
  6
Continuous
 62
     1
100
AcDbLine
 10
9066.905898711747
 20
-4633.217970576363
 30
0.0
 11
9081.475898711753
 21
-4633.217970576363
 31
0.0
  0
LINE
  5
6A8
330
6C
100
AcDbEntity
  8
0
  6
Continuous
 62
     1
100
AcDbLine
 10
9066.905898711747
 20
-4632.697970576402
 30
0.0
 11
9066.905898711747
 21
-4613.257970576371
 31
0.0
  0
ARC
  5
6A9
330
6C
100
AcDbEntity
  8
0
  6
Continuous
 62
     1
100
AcDbCircle
 10
9052.615898711753
 20
-4579.742970576385
 30
0.0
 40
36.43750000000001
100
AcDbArc
 50
293.0922483474367
 51
336.3287713055545
  0
CIRCLE
  5
6AA
330
6C
100
AcDbEntity
  8
0
  6
Continuous
 62
     1
100
AcDbCircle
 10
9021.720898711748
 20
-4490.405470576333
 30
0.0
 40
7.0
  0
CIRCLE
  5
6AB
330
6C
100
AcDbEntity
  8
0
  6
Continuous
 62
     1
100
AcDbCircle
 10
9146.863398711749
 20
-4555.405470576391
 30
0.0
 40
11.225
  0
CIRCLE
  5
6AC
330
6C
100
AcDbEntity
  8
0
  6
Continuous
 62
     1
100
AcDbCircle
 10
9258.190898711735
 20
-4648.005470576339
 30
0.0
 40
7.0
  0
LINE
  5
6AD
330
6C
100
AcDbEntity
  8
0
  6
Continuous
 62
     1
100
AcDbLine
 10
9276.895898711751
 20
-4664.680470576357
 30
0.0
 11
9292.225898711768
 21
-4682.380470576339
 31
0.0
  0
CIRCLE
  5
6AE
330
6C
100
AcDbEntity
  8
0
  6
Continuous
 62
     1
100
AcDbCircle
 10
9471.880898711766
 20
-5290.730470576403
 30
0.0
 40
7.0
  0
CIRCLE
  5
6AF
330
6C
100
AcDbEntity
  8
0
  6
Continuous
 62
     1
100
AcDbCircle
 10
9471.880898711766
 20
-5132.230470576375
 30
0.0
 40
7.0
  0
CIRCLE
  5
6B0
330
6C
100
AcDbEntity
  8
0
  6
Continuous
 62
     1
100
AcDbCircle
 10
9474.890898711761
 20
-5211.480470576345
 30
0.0
 40
11.225
  0
ARC
  5
6B1
330
6C
100
AcDbEntity
  8
0
  6
Continuous
 62
     1
100
AcDbCircle
 10
9248.453398711747
 20
-4982.555470576357
 30
0.0
 40
55.85750000000001
100
AcDbArc
 50
119.154397716009
 51
180.0
  0
ARC
  5
6B2
330
6C
100
AcDbEntity
  8
0
  6
Continuous
 62
     1
100
AcDbCircle
 10
9255.360898711748
 20
-4916.975470576399
 30
0.0
 40
80.15
100
AcDbArc
 50
54.53547880555478
 51
147.0188429495291
  0
LINE
  5
6B3
330
6C
100
AcDbEntity
  8
0
  6
Continuous
 62
     1
100
AcDbLine
 10
9192.833398711751
 20
-4982.555470576357
 30
0.0
 11
9319.14339871175
 21
-4982.555470576357
 31
0.0
  0
ARC
  5
6B4
330
6C
100
AcDbEntity
  8
0
  6
Continuous
 62
     1
100
AcDbCircle
 10
9255.360898711748
 20
-4916.975470576399
 30
0.0
 40
53.435
100
AcDbArc
 50
54.52283447418314
 51
147.0182611090695
  0
LINE
  5
6B5
330
6C
100
AcDbEntity
  8
0
  6
Continuous
 62
     1
100
AcDbLine
 10
9187.983398711745
 20
-4873.242970576328
 30
0.0
 11
9209.850898711753
 21
-4887.812970576335
 31
0.0
  0
LINE
  5
6B6
330
6C
100
AcDbEntity
  8
0
  6
Continuous
 62
     1
100
AcDbLine
 10
9081.130898711752
 20
-4735.235470576321
 30
0.0
 11
9105.423398711748
 21
-4735.235470576321
 31
0.0
  0
ARC
  5
6B7
330
6C
100
AcDbEntity
  8
0
  6
Continuous
 62
     1
100
AcDbCircle
 10
9342.040898711756
 20
-5298.462970576416
 30
0.0
 40
75.04000000000002
100
AcDbArc
 50
63.0419622386077
 51
103.6267139168539
  0
ARC
  5
6B8
330
6C
100
AcDbEntity
  8
0
  6
Continuous
 62
     1
100
AcDbCircle
 10
9382.635898711757
 20
-5242.49797057639
 30
0.0
 40
38.8625
100
AcDbArc
 50
288.4057728510557
 51
66.49070629167221
  0
ARC
  5
6B9
330
6C
100
AcDbEntity
  8
0
  6
Continuous
 62
     1
100
AcDbCircle
 10
9350.573398711743
 20
-5135.63047057634
 30
0.0
 40
121.005
100
AcDbArc
 50
237.4639865227686
 51
280.5635565784623
  0
ARC
  5
6BA
330
6C
100
AcDbEntity
  8
0
  6
Continuous
 62
     1
100
AcDbCircle
 10
9351.155898711747
 20
-5147.775470576416
 30
0.0
 40
138.5425
100
AcDbArc
 50
232.0989848116749
 51
288.3898582296901
  0
LINE
  5
6BB
330
6C
100
AcDbEntity
  8
0
  6
Continuous
 62
     1
100
AcDbLine
 10
9266.07089871174
 20
-5257.067970576398
 30
0.0
 11
9285.490898711753
 21
-5237.647970576414
 31
0.0
  0
ARC
  5
6BC
330
6C
100
AcDbEntity
  8
0
  6
Continuous
 62
     1
100
AcDbCircle
 10
9370.490898711752
 20
-5242.49797057639
 30
0.0
 40
12.145
100
AcDbArc
 50
280.618215665626
 51
62.98343823583339
  0
ARC
  5
6BD
330
6C
100
AcDbEntity
  8
0
  6
Continuous
 62
     1
100
AcDbCircle
 10
9339.508398711741
 20
-5236.975470576399
 30
0.0
 40
72.09750000000001
100
AcDbArc
 50
59.56970323385668
 51
132.9800550978924
  0
ARC
  5
6BE
330
6C
100
AcDbEntity
  8
0
  6
Continuous
 62
     1
100
AcDbCircle
 10
9360.725898711754
 20
-5020.470470576336
 30
0.0
 40
174.8725
100
AcDbArc
 50
257.9946074026837
 51
273.4130505228105
  0
ARC
  5
6BF
330
6C
100
AcDbEntity
  8
0
  6
Continuous
 62
     1
100
AcDbCircle
 10
9343.838398711756
 20
-5234.832970576412
 30
0.0
 40
99.37750000000001
100
AcDbArc
 50
55.03881281552797
 51
135.1855017510829
  0
LINE
  5
6C0
330
6C
100
AcDbEntity
  8
0
  6
Continuous
 62
     1
100
AcDbLine
 10
9319.14339871175
 20
-4982.555470576357
 30
0.0
 11
9319.14339871175
 21
-4958.262970576405
 31
0.0
  0
ARC
  5
6C1
330
6C
100
AcDbEntity
  8
0
  6
Continuous
 62
     1
100
AcDbCircle
 10
9277.855898711743
 20
-4885.387970576376
 30
0.0
 40
41.2875
100
AcDbArc
 50
299.1348389048036
 51
54.5279761524907
  0
ARC
  5
6C2
330
6C
100
AcDbEntity
  8
0
  6
Continuous
 62
     1
100
AcDbCircle
 10
9277.855898711743
 20
-4885.387970576376
 30
0.0
 40
14.57
100
AcDbArc
 50
299.0813474762251
 51
54.46802294066819
  0
LINE
  5
6C3
330
6C
100
AcDbEntity
  8
0
  6
Continuous
 62
     1
100
AcDbLine
 10
9221.218398711746
 20
-4933.732970576348
 30
0.0
 11
9284.935898711745
 21
-4898.117970576386
 31
0.0
  0
LINE
  5
6C4
330
6C
100
AcDbEntity
  8
0
  6
Continuous
 62
     1
100
AcDbLine
 10
9232.043398711757
 20
-4958.262970576405
 30
0.0
 11
9297.948398711756
 21
-4921.435470576333
 31
0.0
  0
LINE
  5
6C5
330
6C
100
AcDbEntity
  8
0
  6
Continuous
 62
     1
100
AcDbLine
 10
9232.043398711757
 20
-4958.262970576405
 30
0.0
 11
9319.14339871175
 21
-4958.262970576405
 31
0.0
  0
LINE
  5
6C6
330
6C
100
AcDbEntity
  8
0
  6
Continuous
 62
     1
100
AcDbLine
 10
9324.353398711755
 20
-5225.500470576335
 30
0.0
 11
9324.353398711755
 21
-5191.510470576344
 31
0.0
  0
LINE
  5
6C7
330
6C
100
AcDbEntity
  8
0
  6
Continuous
 62
     1
100
AcDbLine
 10
9273.343398711746
 20
-5164.792970576345
 30
0.0
 11
9290.340898711745
 21
-5184.212970576329
 31
0.0
  0
CIRCLE
  5
6C8
330
6C
100
AcDbEntity
  8
0
  6
Continuous
 62
     1
100
AcDbCircle
 10
9418.685898711744
 20
-4903.155470576363
 30
0.0
 40
7.0
  0
CIRCLE
  5
6C9
330
6C
100
AcDbEntity
  8
0
  6
Continuous
 62
     1
100
AcDbCircle
 10
9443.323398711742
 20
-4977.155470576363
 30
0.0
 40
7.0
  0
ARC
  5
6CA
330
6C
100
AcDbEntity
  8
0
  6
Continuous
 62
     1
100
AcDbCircle
 10
9382.635898711757
 20
-5179.362970576352
 30
0.0
 40
31.56750000000001
100
AcDbArc
 50
299.4133701767363
 51
55.05804633009802
  0
ARC
  5
6CB
330
6C
100
AcDbEntity
  8
0
  6
Continuous
 62
     1
100
AcDbCircle
 10
9370.490898711752
 20
-5184.212970576329
 30
0.0
 40
10.9325
100
AcDbArc
 50
273.4158057087034
 51
59.52182739886438
  0
LINE
  5
6CC
330
6C
100
AcDbEntity
  8
0
  6
Continuous
 62
     1
100
AcDbLine
 10
9369.625898711761
 20
-5195.102970576343
 30
0.0
 11
9369.775898711756
 21
-5195.102970576343
 31
0.0
  0
CIRCLE
  5
6CD
330
6C
100
AcDbEntity
  8
0
  6
Continuous
 62
     1
100
AcDbCircle
 10
9387.010898711755
 20
-4832.705470576381
 30
0.0
 40
11.225
  0
CIRCLE
  5
6CE
330
6C
100
AcDbEntity
  8
0
  6
Continuous
 62
     1
100
AcDbCircle
 10
9306.773398711753
 20
-4704.155470576392
 30
0.0
 40
7.0
  0
CIRCLE
  5
6CF
330
6C
100
AcDbEntity
  8
0
  6
Continuous
 62
     1
100
AcDbCircle
 10
9350.053398711752
 20
-4765.805470576415
 30
0.0
 40
7.0
  0
CIRCLE
  5
6D0
330
6C
100
AcDbEntity
  8
0
  6
Continuous
 62
     1
100
AcDbCircle
 10
9461.098398711765
 20
-5053.830470576322
 30
0.0
 40
7.0
  0
LINE
  5
6D1
330
6C
100
AcDbEntity
  8
0
  6
Continuous
 62
     1
100
AcDbLine
 10
9081.475898711753
 20
-4735.235470576321
 30
0.0
 11
9081.475898711753
 21
-4633.217970576363
 31
0.0
  0
LINE
  5
6D2
330
6C
100
AcDbEntity
  8
0
  6
Continuous
 62
     1
100
AcDbLine
 10
9105.423398711748
 20
-4735.235470576321
 30
0.0
 11
9105.423398711748
 21
-4594.377970576366
 31
0.0
  0
LINE
  5
6D3
330
6C
100
AcDbEntity
  8
4
100
AcDbLine
 10
2111.472906907031
 20
-3420.930470576328
 30
0.0
 11
2107.472906907031
 21
-3420.930470576328
 31
0.0
  0
LINE
  5
6D4
330
6C
100
AcDbEntity
  8
1
100
AcDbLine
 10
2171.972906907002
 20
-3681.263264046538
 30
0.0
 11
2110.722906907002
 21
-3681.263264046538
 31
0.0
  0
LINE
  5
6D5
330
6C
100
AcDbEntity
  8
1
100
AcDbLine
 10
2171.972906907002
 20
-3700.013264046538
 30
0.0
 11
2110.722906907002
 21
-3700.013264046538
 31
0.0
  0
LINE
  5
6D6
330
6C
100
AcDbEntity
  8
1
100
AcDbLine
 10
2171.972906907002
 20
-3793.763264046538
 30
0.0
 11
2110.722906907002
 21
-3793.763264046538
 31
0.0
  0
LINE
  5
6D7
330
6C
100
AcDbEntity
  8
1
100
AcDbLine
 10
2171.972906907002
 20
-3737.513264046538
 30
0.0
 11
2110.722906907002
 21
-3737.513264046538
 31
0.0
  0
LINE
  5
6D8
330
6C
100
AcDbEntity
  8
1
100
AcDbLine
 10
2171.972906907002
 20
-3718.763264046538
 30
0.0
 11
2110.722906907002
 21
-3718.763264046538
 31
0.0
  0
LINE
  5
6D9
330
6C
100
AcDbEntity
  8
1
100
AcDbLine
 10
2171.972906907002
 20
-3756.263264046538
 30
0.0
 11
2110.722906907002
 21
-3756.263264046538
 31
0.0
  0
LINE
  5
6DA
330
6C
100
AcDbEntity
  8
1
100
AcDbLine
 10
2171.972906907002
 20
-3775.013264046538
 30
0.0
 11
2110.722906907002
 21
-3775.013264046538
 31
0.0
  0
LINE
  5
6DB
330
6C
100
AcDbEntity
  8
4
100
AcDbLine
 10
2116.201077956939
 20
-3819.810529137576
 30
0.0
 11
2102.744735857093
 21
-3819.810529137576
 31
0.0
  0
LINE
  5
6DC
330
6C
100
AcDbEntity
  8
1
100
AcDbLine
 10
2110.722906907002
 20
-3793.763264046538
 30
0.0
 11
2110.722906907002
 21
-3681.263264046538
 31
0.0
  0
LINE
  5
6DD
330
6C
100
AcDbEntity
  8
1
100
AcDbLine
 10
2108.222906907002
 20
-3793.763264046538
 30
0.0
 11
2108.222906907002
 21
-3681.263264046538
 31
0.0
  0
ARC
  5
6DE
330
6C
100
AcDbEntity
  8
4
100
AcDbCircle
 10
2181.972906907002
 20
-3658.147176530146
 30
0.0
 40
10.0
100
AcDbArc
 50
0.0
 51
90.0
1001
GENIUS_GENODEF_13
1002
{
1000
HIER
1070
     0
1002
}
1002
{
1000
MANEDIT
1070
     0
1002
}
1002
{
1000
NOSEL
1070
     0
1002
}
1002
{
1000
BEHIND
1070
     0
1002
}
1002
{
1000
REACTOR
1002
}
1001
GENIUS_GENOBJ-N-FIL_13
1002
{
1000
OWNER
1000
GEN
1002
}
  0
ARC
  5
6DF
330
6C
100
AcDbEntity
  8
4
100
AcDbCircle
 10
2201.972906907002
 20
-3823.430470576328
 30
0.0
 40
7.5
100
AcDbArc
 50
0.0
 51
90.0
1001
GENIUS_GENODEF_13
1002
{
1000
HIER
1070
     0
1002
}
1002
{
1000
MANEDIT
1070
     0
1002
}
1002
{
1000
NOSEL
1070
     0
1002
}
1002
{
1000
BEHIND
1070
     0
1002
}
1002
{
1000
REACTOR
1002
}
1001
GENIUS_GENOBJ-N-FIL_13
1002
{
1000
OWNER
1000
GEN
1002
}
  0
ARC
  5
6E0
330
6C
100
AcDbEntity
  8
4
100
AcDbCircle
 10
2206.972906907002
 20
-3900.930470576298
 30
0.0
 40
2.5
100
AcDbArc
 50
0.0
 51
90.0
1001
GENIUS_GENODEF_13
1002
{
1000
HIER
1070
     0
1002
}
1002
{
1000
MANEDIT
1070
     0
1002
}
1002
{
1000
NOSEL
1070
     0
1002
}
1002
{
1000
BEHIND
1070
     0
1002
}
1002
{
1000
REACTOR
1002
}
1001
GENIUS_GENOBJ-N-FIL_13
1002
{
1000
OWNER
1000
GEN
1002
}
  0
LINE
  5
6E1
330
6C
100
AcDbEntity
  8
4
100
AcDbLine
 10
2191.972906907002
 20
-3661.37050182686
 30
0.0
 11
2196.972906907002
 21
-3661.37050182686
 31
0.0
  0
ARC
  5
6E2
330
6C
100
AcDbEntity
  8
4
100
AcDbCircle
 10
2189.472906907002
 20
-3895.930470576299
 30
0.0
 40
2.5
100
AcDbArc
 50
180.0
 51
270.0
1001
GENIUS_GENODEF_13
1002
{
1000
HIER
1070
     0
1002
}
1002
{
1000
MANEDIT
1070
     0
1002
}
1002
{
1000
NOSEL
1070
     0
1002
}
1002
{
1000
BEHIND
1070
     0
1002
}
1002
{
1000
REACTOR
1002
}
1001
GENIUS_GENOBJ-N-FIL_13
1002
{
1000
OWNER
1000
GEN
1002
}
  0
ARC
  5
6E3
330
6C
100
AcDbEntity
  8
4
100
AcDbCircle
 10
2186.972906907031
 20
-3874.819791582348
 30
0.0
 40
5.0
100
AcDbArc
 50
270.0
 51
0.0
1001
GENIUS_GENODEF_13
1002
{
1000
HIER
1070
     0
1002
}
1002
{
1000
MANEDIT
1070
     0
1002
}
1002
{
1000
NOSEL
1070
     0
1002
}
1002
{
1000
BEHIND
1070
     0
1002
}
1002
{
1000
REACTOR
1002
}
1001
GENIUS_GENOBJ-N-FIL_13
1002
{
1000
OWNER
1000
GEN
1002
}
  0
LINE
  5
6E4
330
6C
100
AcDbEntity
  8
4
100
AcDbLine
 10
2186.972906907002
 20
-3895.930470576299
 30
0.0
 11
2186.972906907002
 21
-3885.963431914504
 31
0.0
  0
ARC
  5
6E5
330
6C
100
AcDbEntity
  8
4
100
AcDbCircle
 10
2199.472906907002
 20
-3838.430470576328
 30
0.0
 40
12.5
100
AcDbArc
 50
90.0
 51
101.5369590326026
1001
GENIUS_GENODEF_13
1002
{
1000
HIER
1070
     0
1002
}
1002
{
1000
MANEDIT
1070
     0
1002
}
1002
{
1000
NOSEL
1070
     0
1002
}
1002
{
1000
BEHIND
1070
     0
1002
}
1002
{
1000
REACTOR
1002
}
1001
GENIUS_GENOBJ-N-FIL_13
1002
{
1000
OWNER
1000
GEN
1002
}
  0
LINE
  5
6E6
330
6C
100
AcDbEntity
  8
4
100
AcDbLine
 10
2198.222906907002
 20
-3813.430470576328
 30
0.0
 11
2198.222906907002
 21
-3815.930470576328
 31
0.0
1001
GENIUS_GENODEF_13
1002
{
1000
HIER
1070
     0
1002
}
1002
{
1000
MANEDIT
1070
     0
1002
}
1002
{
1000
NOSEL
1070
     0
1002
}
1002
{
1000
BEHIND
1070
     0
1002
}
1002
{
1000
REACTOR
1002
}
1001
GENIUS_GENOBJ-N-CEN_13
1002
{
1000
OWNER
1000
GEN
1002
}
  0
LINE
  5
6E7
330
6C
100
AcDbEntity
  8
4
100
AcDbLine
 10
2196.972906907002
 20
-3813.430470576328
 30
0.0
 11
2198.222906907002
 21
-3813.430470576328
 31
0.0
  0
LINE
  5
6E8
330
6C
100
AcDbEntity
  8
1
100
AcDbLine
 10
2171.972906907002
 20
-3681.263264046538
 30
0.0
 11
2171.972906907002
 21
-3793.763264046538
 31
0.0
  0
LINE
  5
6E9
330
6C
100
AcDbEntity
  8
4
100
AcDbLine
 10
2196.972906907002
 20
-3661.37050182686
 30
0.0
 11
2196.972906907002
 21
-3885.963431914504
 31
0.0
1001
GENIUS_GENODEF_13
1002
{
1000
HIER
1070
     0
1002
}
1002
{
1000
MANEDIT
1070
     0
1002
}
1002
{
1000
NOSEL
1070
     0
1002
}
1002
{
1000
BEHIND
1070
     0
1002
}
1002
{
1000
REACTOR
1002
}
1001
GENIUS_GENOBJ-N-CEN_13
1002
{
1000
OWNER
1000
GEN
1002
}
  0
LINE
  5
6EA
330
6C
100
AcDbEntity
  8
4
100
AcDbLine
 10
2191.972906907002
 20
-3658.147176530146
 30
0.0
 11
2191.972906907031
 21
-3874.819791582348
 31
0.0
  0
LINE
  5
6EB
330
6C
100
AcDbEntity
  8
4
100
AcDbLine
 10
2206.972906907002
 20
-3898.430470576299
 30
0.0
 11
2189.472906907002
 21
-3898.430470576299
 31
0.0
  0
LINE
  5
6EC
330
6C
100
AcDbEntity
  8
4
100
AcDbLine
 10
2199.472906907002
 20
-3825.930470576328
 30
0.0
 11
2209.472906907002
 21
-3825.930470576328
 31
0.0
  0
LINE
  5
6ED
330
6C
100
AcDbEntity
  8
4
100
AcDbLine
 10
2196.972906907002
 20
-3815.930470576328
 30
0.0
 11
2201.972906907002
 21
-3815.930470576328
 31
0.0
  0
ARC
  5
6EE
330
6C
100
AcDbEntity
  8
4
100
AcDbCircle
 10
2036.972906907002
 20
-3658.147176530146
 30
0.0
 40
10.0
100
AcDbArc
 50
90.0
 51
180.0
1001
GENIUS_GENODEF_13
1002
{
1000
HIER
1070
     0
1002
}
1002
{
1000
MANEDIT
1070
     0
1002
}
1002
{
1000
NOSEL
1070
     0
1002
}
1002
{
1000
BEHIND
1070
     0
1002
}
1002
{
1000
REACTOR
1002
}
1001
GENIUS_GENOBJ-N-FIL_13
1002
{
1000
OWNER
1000
GEN
1002
}
  0
LINE
  5
6EF
330
6C
100
AcDbEntity
  8
4
100
AcDbLine
 10
2026.972906907002
 20
-3661.37050182686
 30
0.0
 11
2021.972906907002
 21
-3661.37050182686
 31
0.0
  0
ARC
  5
6F0
330
6C
100
AcDbEntity
  8
4
100
AcDbCircle
 10
2016.972906907002
 20
-3823.430470576328
 30
0.0
 40
7.5
100
AcDbArc
 50
90.0
 51
180.0
1001
GENIUS_GENODEF_13
1002
{
1000
HIER
1070
     0
1002
}
1002
{
1000
MANEDIT
1070
     0
1002
}
1002
{
1000
NOSEL
1070
     0
1002
}
1002
{
1000
BEHIND
1070
     0
1002
}
1002
{
1000
REACTOR
1002
}
1001
GENIUS_GENOBJ-N-FIL_13
1002
{
1000
OWNER
1000
GEN
1002
}
  0
ARC
  5
6F1
330
6C
100
AcDbEntity
  8
4
100
AcDbCircle
 10
2011.972906907002
 20
-3900.930470576298
 30
0.0
 40
2.5
100
AcDbArc
 50
90.0
 51
180.0
1001
GENIUS_GENODEF_13
1002
{
1000
HIER
1070
     0
1002
}
1002
{
1000
MANEDIT
1070
     0
1002
}
1002
{
1000
NOSEL
1070
     0
1002
}
1002
{
1000
BEHIND
1070
     0
1002
}
1002
{
1000
REACTOR
1002
}
1001
GENIUS_GENOBJ-N-FIL_13
1002
{
1000
OWNER
1000
GEN
1002
}
  0
LINE
  5
6F2
330
6C
100
AcDbEntity
  8
4
100
AcDbLine
 10
2011.972906907002
 20
-3898.430470576299
 30
0.0
 11
2029.472906907002
 21
-3898.430470576299
 31
0.0
  0
ARC
  5
6F3
330
6C
100
AcDbEntity
  8
4
100
AcDbCircle
 10
2029.472906907002
 20
-3895.930470576299
 30
0.0
 40
2.5
100
AcDbArc
 50
270.0
 51
0.0
1001
GENIUS_GENODEF_13
1002
{
1000
HIER
1070
     0
1002
}
1002
{
1000
MANEDIT
1070
     0
1002
}
1002
{
1000
NOSEL
1070
     0
1002
}
1002
{
1000
BEHIND
1070
     0
1002
}
1002
{
1000
REACTOR
1002
}
1001
GENIUS_GENOBJ-N-FIL_13
1002
{
1000
OWNER
1000
GEN
1002
}
  0
LINE
  5
6F4
330
6C
100
AcDbEntity
  8
4
100
AcDbLine
 10
2019.472906907002
 20
-3825.930470576328
 30
0.0
 11
2009.472906907002
 21
-3825.930470576328
 31
0.0
  0
ARC
  5
6F5
330
6C
100
AcDbEntity
  8
4
100
AcDbCircle
 10
2031.972906907002
 20
-3874.819791582348
 30
0.0
 40
5.0
100
AcDbArc
 50
180.0
 51
270.0
1001
GENIUS_GENODEF_13
1002
{
1000
HIER
1070
     0
1002
}
1002
{
1000
MANEDIT
1070
     0
1002
}
1002
{
1000
NOSEL
1070
     0
1002
}
1002
{
1000
BEHIND
1070
     0
1002
}
1002
{
1000
REACTOR
1002
}
1001
GENIUS_GENOBJ-N-FIL_13
1002
{
1000
OWNER
1000
GEN
1002
}
  0
LINE
  5
6F6
330
6C
100
AcDbEntity
  8
4
100
AcDbLine
 10
2031.972906907002
 20
-3895.930470576299
 30
0.0
 11
2031.972906907002
 21
-3885.963431914504
 31
0.0
  0
ARC
  5
6F7
330
6C
100
AcDbEntity
  8
4
100
AcDbCircle
 10
2019.472906907002
 20
-3838.430470576328
 30
0.0
 40
12.5
100
AcDbArc
 50
78.4630409673973
 51
90.0
1001
GENIUS_GENODEF_13
1002
{
1000
HIER
1070
     0
1002
}
1002
{
1000
MANEDIT
1070
     0
1002
}
1002
{
1000
NOSEL
1070
     0
1002
}
1002
{
1000
BEHIND
1070
     0
1002
}
1002
{
1000
REACTOR
1002
}
1001
GENIUS_GENOBJ-N-FIL_13
1002
{
1000
OWNER
1000
GEN
1002
}
  0
LINE
  5
6F8
330
6C
100
AcDbEntity
  8
4
100
AcDbLine
 10
2021.972906907002
 20
-3815.930470576328
 30
0.0
 11
2016.972906907002
 21
-3815.930470576328
 31
0.0
  0
LINE
  5
6F9
330
6C
100
AcDbEntity
  8
4
100
AcDbLine
 10
2021.972906907002
 20
-3813.430470576328
 30
0.0
 11
2020.722906907002
 21
-3813.430470576328
 31
0.0
  0
LINE
  5
6FA
330
6C
100
AcDbEntity
  8
4
100
AcDbLine
 10
2020.722906907002
 20
-3813.430470576328
 30
0.0
 11
2020.722906907002
 21
-3815.930470576328
 31
0.0
1001
GENIUS_GENODEF_13
1002
{
1000
HIER
1070
     0
1002
}
1002
{
1000
MANEDIT
1070
     0
1002
}
1002
{
1000
NOSEL
1070
     0
1002
}
1002
{
1000
BEHIND
1070
     0
1002
}
1002
{
1000
REACTOR
1002
}
1001
GENIUS_GENOBJ-N-CEN_13
1002
{
1000
OWNER
1000
GEN
1002
}
  0
LINE
  5
6FB
330
6C
100
AcDbEntity
  8
1
100
AcDbLine
 10
2046.972906907002
 20
-3681.263264046538
 30
0.0
 11
2046.972906907002
 21
-3793.763264046538
 31
0.0
  0
LINE
  5
6FC
330
6C
100
AcDbEntity
  8
4
100
AcDbLine
 10
2021.972906907002
 20
-3661.37050182686
 30
0.0
 11
2021.972906907002
 21
-3885.963431914504
 31
0.0
1001
GENIUS_GENODEF_13
1002
{
1000
HIER
1070
     0
1002
}
1002
{
1000
MANEDIT
1070
     0
1002
}
1002
{
1000
NOSEL
1070
     0
1002
}
1002
{
1000
BEHIND
1070
     0
1002
}
1002
{
1000
REACTOR
1002
}
1001
GENIUS_GENOBJ-N-CEN_13
1002
{
1000
OWNER
1000
GEN
1002
}
  0
LINE
  5
6FD
330
6C
100
AcDbEntity
  8
4
100
AcDbLine
 10
2026.972906907002
 20
-3658.147176530146
 30
0.0
 11
2026.972906907002
 21
-3874.819791582348
 31
0.0
  0
LINE
  5
6FE
330
6C
100
AcDbEntity
  8
4
100
AcDbLine
 10
2181.972906907002
 20
-3648.147176530147
 30
0.0
 11
2036.972906907002
 21
-3648.147176530147
 31
0.0
  0
LINE
  5
6FF
330
6C
100
AcDbEntity
  8
4
100
AcDbLine
 10
2191.912013356661
 20
-3872.037847161577
 30
0.0
 11
2026.972906907002
 21
-3872.037847161577
 31
0.0
  0
LINE
  5
700
330
6C
100
AcDbEntity
  8
4
100
AcDbLine
 10
2196.972906907002
 20
-3885.963431914504
 30
0.0
 11
2021.972906907002
 21
-3885.963431914504
 31
0.0
  0
LINE
  5
701
330
6C
100
AcDbEntity
  8
4
100
AcDbLine
 10
2021.972906907002
 20
-3879.819791582348
 30
0.0
 11
2196.972906907002
 21
-3879.819791582348
 31
0.0
  0
LINE
  5
702
330
6C
100
AcDbEntity
  8
1
100
AcDbLine
 10
2108.222906907002
 20
-3681.263264046538
 30
0.0
 11
2046.972906907002
 21
-3681.263264046538
 31
0.0
  0
LINE
  5
703
330
6C
100
AcDbEntity
  8
1
100
AcDbLine
 10
2108.222906907002
 20
-3700.013264046538
 30
0.0
 11
2046.972906907002
 21
-3700.013264046538
 31
0.0
  0
LINE
  5
704
330
6C
100
AcDbEntity
  8
1
100
AcDbLine
 10
2108.222906907002
 20
-3793.763264046538
 30
0.0
 11
2046.972906907002
 21
-3793.763264046538
 31
0.0
  0
LINE
  5
705
330
6C
100
AcDbEntity
  8
1
100
AcDbLine
 10
2108.222906907002
 20
-3737.513264046538
 30
0.0
 11
2046.972906907002
 21
-3737.513264046538
 31
0.0
  0
LINE
  5
706
330
6C
100
AcDbEntity
  8
1
100
AcDbLine
 10
2108.222906907002
 20
-3718.763264046538
 30
0.0
 11
2046.972906907002
 21
-3718.763264046538
 31
0.0
  0
LINE
  5
707
330
6C
100
AcDbEntity
  8
1
100
AcDbLine
 10
2108.222906907002
 20
-3756.263264046538
 30
0.0
 11
2046.972906907002
 21
-3756.263264046538
 31
0.0
  0
LINE
  5
708
330
6C
100
AcDbEntity
  8
1
100
AcDbLine
 10
2108.222906907002
 20
-3775.013264046538
 30
0.0
 11
2046.972906907002
 21
-3775.013264046538
 31
0.0
  0
LINE
  5
709
330
6C
100
AcDbEntity
  8
4
100
AcDbLine
 10
2107.472906907031
 20
-3648.076257551053
 30
0.0
 11
2107.472906907031
 21
-3421.11161994165
 31
0.0
  0
LINE
  5
70A
330
6C
100
AcDbEntity
  8
4
100
AcDbLine
 10
2111.472906907031
 20
-3648.076257551053
 30
0.0
 11
2111.472906907031
 21
-3421.11161994165
 31
0.0
  0
LINE
  5
70B
330
6C
100
AcDbEntity
  8
4
100
AcDbLine
 10
2209.472906907002
 20
-3944.930470576328
 30
0.0
 11
2209.472906907002
 21
-4043.430470576327
 31
0.0
1001
GENIUS_GENODEF_13
1002
{
1000
HIER
1070
     0
1002
}
1002
{
1000
MANEDIT
1070
     0
1002
}
1002
{
1000
NOSEL
1070
     0
1002
}
1002
{
1000
BEHIND
1070
     0
1002
}
1002
{
1000
REACTOR
1002
}
1001
GENIUS_GENOBJ-N-CEN_13
1002
{
1000
OWNER
1000
GEN
1002
}
  0
LINE
  5
70C
330
6C
100
AcDbEntity
  8
4
100
AcDbLine
 10
2186.972906907002
 20
-4050.930470576298
 30
0.0
 11
2186.972906907002
 21
-3973.680470576299
 31
0.0
  0
ARC
  5
70D
330
6C
100
AcDbEntity
  8
4
100
AcDbCircle
 10
2201.972906907002
 20
-4043.430470576327
 30
0.0
 40
7.5
100
AcDbArc
 50
270.0
 51
0.0
1001
GENIUS_GENODEF_13
1002
{
1000
HIER
1070
     0
1002
}
1002
{
1000
MANEDIT
1070
     0
1002
}
1002
{
1000
NOSEL
1070
     0
1002
}
1002
{
1000
BEHIND
1070
     0
1002
}
1002
{
1000
REACTOR
1002
}
1001
GENIUS_GENOBJ-N-FIL_13
1002
{
1000
OWNER
1000
GEN
1002
}
  0
LINE
  5
70E
330
6C
100
AcDbEntity
  8
4
100
AcDbLine
 10
2157.131242300238
 20
-4086.008236100831
 30
0.0
 11
2158.147523894266
 21
-4053.352705051853
 31
0.0
  0
ARC
  5
70F
330
6C
100
AcDbEntity
  8
4
100
AcDbCircle
 10
2160.646314106183
 20
-4053.430470576328
 30
0.0
 40
2.5
100
AcDbArc
 50
90.0
 51
178.2174579200389
1001
GENIUS_GENODEF_13
1002
{
1000
HIER
1070
     0
1002
}
1002
{
1000
MANEDIT
1070
     0
1002
}
1002
{
1000
NOSEL
1070
     0
1002
}
1002
{
1000
BEHIND
1070
     0
1002
}
1002
{
1000
REACTOR
1002
}
1001
GENIUS_GENOBJ-N-FIL_13
1002
{
1000
OWNER
1000
GEN
1002
}
  0
LINE
  5
710
330
6C
100
AcDbEntity
  8
4
100
AcDbLine
 10
2131.814571513794
 20
-4086.008236100831
 30
0.0
 11
2130.798289919796
 21
-4053.352705051824
 31
0.0
  0
ARC
  5
711
330
6C
100
AcDbEntity
  8
4
100
AcDbCircle
 10
2128.29949970785
 20
-4053.430470576328
 30
0.0
 40
2.5
100
AcDbArc
 50
1.782542079961059
 51
90.0
1001
GENIUS_GENODEF_13
1002
{
1000
HIER
1070
     0
1002
}
1002
{
1000
MANEDIT
1070
     0
1002
}
1002
{
1000
NOSEL
1070
     0
1002
}
1002
{
1000
BEHIND
1070
     0
1002
}
1002
{
1000
REACTOR
1002
}
1001
GENIUS_GENOBJ-N-FIL_13
1002
{
1000
OWNER
1000
GEN
1002
}
  0
LINE
  5
712
330
6C
100
AcDbEntity
  8
4
100
AcDbLine
 10
2158.722906907031
 20
-4140.930470576328
 30
0.0
 11
2144.972906907031
 21
-4140.930470576328
 31
0.0
  0
LINE
  5
713
330
6C
100
AcDbEntity
  8
4
100
AcDbLine
 10
2142.472906907031
 20
-4103.430470576328
 30
0.0
 11
2142.472906907031
 21
-4203.430470576328
 31
0.0
1001
GENIUS_GENODEF_13
1002
{
1000
HIER
1070
     0
1002
}
1002
{
1000
MANEDIT
1070
     0
1002
}
1002
{
1000
NOSEL
1070
     0
1002
}
1002
{
1000
BEHIND
1070
     0
1002
}
1002
{
1000
REACTOR
1002
}
1001
GENIUS_GENOBJ-N-CEN_13
1002
{
1000
OWNER
1000
GEN
1002
}
  0
LINE
  5
714
330
6C
100
AcDbEntity
  8
4
100
AcDbLine
 10
2144.972906907031
 20
-4140.930470576328
 30
0.0
 11
2144.972906907031
 21
-4203.430470576328
 31
0.0
1001
GENIUS_GENODEF_13
1002
{
1000
HIER
1070
     0
1002
}
1002
{
1000
MANEDIT
1070
     0
1002
}
1002
{
1000
NOSEL
1070
     0
1002
}
1002
{
1000
BEHIND
1070
     0
1002
}
1002
{
1000
REACTOR
1002
}
1001
GENIUS_GENOBJ-N-CEN_13
1002
{
1000
OWNER
1000
GEN
1002
}
  0
LINE
  5
715
330
6C
100
AcDbEntity
  8
4
100
AcDbLine
 10
2154.972906907031
 20
-4103.430470576328
 30
0.0
 11
2154.972906907031
 21
-4140.930470576328
 31
0.0
1001
GENIUS_GENODEF_13
1002
{
1000
HIER
1070
     0
1002
}
1002
{
1000
MANEDIT
1070
     0
1002
}
1002
{
1000
NOSEL
1070
     0
1002
}
1002
{
1000
BEHIND
1070
     0
1002
}
1002
{
1000
REACTOR
1002
}
1001
GENIUS_GENOBJ-N-CEN_13
1002
{
1000
OWNER
1000
GEN
1002
}
  0
LINE
  5
716
330
6C
100
AcDbEntity
  8
4
100
AcDbLine
 10
2134.311789636733
 20
-4088.430470576327
 30
0.0
 11
2154.632452088321
 21
-4088.430470576327
 31
0.0
  0
LINE
  5
717
330
6C
100
AcDbEntity
  8
4
100
AcDbLine
 10
2142.472906907031
 20
-4103.430470576328
 30
0.0
 11
2143.187192621292
 21
-4088.430470576327
 31
0.0
  0
LINE
  5
718
330
6C
100
AcDbEntity
  8
4
100
AcDbLine
 10
2154.972906907031
 20
-4103.430470576328
 30
0.0
 11
2155.698559958459
 21
-4088.191756495733
 31
0.0
  0
LINE
  5
719
330
6C
100
AcDbEntity
  8
4
100
AcDbLine
 10
2158.722906907031
 20
-4140.930470576328
 30
0.0
 11
2158.722906907031
 21
-4203.430470576328
 31
0.0
1001
GENIUS_GENODEF_13
1002
{
1000
HIER
1070
     0
1002
}
1002
{
1000
MANEDIT
1070
     0
1002
}
1002
{
1000
NOSEL
1070
     0
1002
}
1002
{
1000
BEHIND
1070
     0
1002
}
1002
{
1000
REACTOR
1002
}
1001
GENIUS_GENOBJ-N-CEN_13
1002
{
1000
OWNER
1000
GEN
1002
}
  0
ARC
  5
71A
330
6C
100
AcDbEntity
  8
4
100
AcDbCircle
 10
2134.313361725712
 20
-4085.930470576328
 30
0.0
 40
2.5
100
AcDbArc
 50
181.7825420799611
 51
270.0
1001
GENIUS_GENODEF_13
1002
{
1000
HIER
1070
     0
1002
}
1002
{
1000
MANEDIT
1070
     0
1002
}
1002
{
1000
NOSEL
1070
     0
1002
}
1002
{
1000
BEHIND
1070
     0
1002
}
1002
{
1000
REACTOR
1002
}
1001
GENIUS_GENOBJ-N-FIL_13
1002
{
1000
OWNER
1000
GEN
1002
}
  0
ARC
  5
71B
330
6C
100
AcDbEntity
  8
4
100
AcDbCircle
 10
2154.632452088321
 20
-4085.930470576328
 30
0.0
 40
2.5
100
AcDbArc
 50
270.0
 51
358.217457920039
1001
GENIUS_GENODEF_13
1002
{
1000
HIER
1070
     0
1002
}
1002
{
1000
MANEDIT
1070
     0
1002
}
1002
{
1000
NOSEL
1070
     0
1002
}
1002
{
1000
BEHIND
1070
     0
1002
}
1002
{
1000
REACTOR
1002
}
1001
GENIUS_GENOBJ-N-FIL_13
1002
{
1000
OWNER
1000
GEN
1002
}
  0
ARC
  5
71C
330
6C
100
AcDbEntity
  8
4
100
AcDbCircle
 10
2206.972906907031
 20
-3968.680470576299
 30
0.0
 40
2.5
100
AcDbArc
 50
270.0
 51
0.0
1001
GENIUS_GENODEF_13
1002
{
1000
HIER
1070
     0
1002
}
1002
{
1000
MANEDIT
1070
     0
1002
}
1002
{
1000
NOSEL
1070
     0
1002
}
1002
{
1000
BEHIND
1070
     0
1002
}
1002
{
1000
REACTOR
1002
}
1001
GENIUS_GENOBJ-N-FIL_13
1002
{
1000
OWNER
1000
GEN
1002
}
  0
LINE
  5
71D
330
6C
100
AcDbEntity
  8
4
100
AcDbLine
 10
2207.972906907002
 20
-3943.430470576328
 30
0.0
 11
2207.972906907002
 21
-3944.930470576328
 31
0.0
1001
GENIUS_GENODEF_13
1002
{
1000
HIER
1070
     0
1002
}
1002
{
1000
MANEDIT
1070
     0
1002
}
1002
{
1000
NOSEL
1070
     0
1002
}
1002
{
1000
BEHIND
1070
     0
1002
}
1002
{
1000
REACTOR
1002
}
1001
GENIUS_GENOBJ-N-CEN_13
1002
{
1000
OWNER
1000
GEN
1002
}
  0
ARC
  5
71E
330
6C
100
AcDbEntity
  8
4
100
AcDbCircle
 10
2189.472906907002
 20
-3973.680470576299
 30
0.0
 40
2.5
100
AcDbArc
 50
90.0
 51
180.0
1001
GENIUS_GENODEF_13
1002
{
1000
HIER
1070
     0
1002
}
1002
{
1000
MANEDIT
1070
     0
1002
}
1002
{
1000
NOSEL
1070
     0
1002
}
1002
{
1000
BEHIND
1070
     0
1002
}
1002
{
1000
REACTOR
1002
}
1001
GENIUS_GENOBJ-N-FIL_13
1002
{
1000
OWNER
1000
GEN
1002
}
  0
LINE
  5
71F
330
6C
100
AcDbEntity
  8
4
100
AcDbLine
 10
2206.972906907031
 20
-3971.180470576299
 30
0.0
 11
2189.472906907002
 21
-3971.180470576299
 31
0.0
  0
LINE
  5
720
330
6C
100
AcDbEntity
  8
4
100
AcDbLine
 10
2031.972906907002
 20
-4050.930470576298
 30
0.0
 11
2031.972906907002
 21
-3973.680470576299
 31
0.0
  0
LINE
  5
721
330
6C
100
AcDbEntity
  8
4
100
AcDbLine
 10
2009.472906907002
 20
-3944.930470576328
 30
0.0
 11
2009.472906907002
 21
-4043.430470576327
 31
0.0
1001
GENIUS_GENODEF_13
1002
{
1000
HIER
1070
     0
1002
}
1002
{
1000
MANEDIT
1070
     0
1002
}
1002
{
1000
NOSEL
1070
     0
1002
}
1002
{
1000
BEHIND
1070
     0
1002
}
1002
{
1000
REACTOR
1002
}
1001
GENIUS_GENOBJ-N-CEN_13
1002
{
1000
OWNER
1000
GEN
1002
}
  0
ARC
  5
722
330
6C
100
AcDbEntity
  8
4
100
AcDbCircle
 10
2016.972906907002
 20
-4043.430470576327
 30
0.0
 40
7.5
100
AcDbArc
 50
180.0
 51
270.0
1001
GENIUS_GENODEF_13
1002
{
1000
HIER
1070
     0
1002
}
1002
{
1000
MANEDIT
1070
     0
1002
}
1002
{
1000
NOSEL
1070
     0
1002
}
1002
{
1000
BEHIND
1070
     0
1002
}
1002
{
1000
REACTOR
1002
}
1001
GENIUS_GENOBJ-N-FIL_13
1002
{
1000
OWNER
1000
GEN
1002
}
  0
ARC
  5
723
330
6C
100
AcDbEntity
  8
4
100
AcDbCircle
 10
2055.553980691766
 20
-4063.430470576327
 30
0.0
 40
12.5
100
AcDbArc
 50
2.726310993311393
 51
90.0
1001
GENIUS_GENODEF_13
1002
{
1000
HIER
1070
     0
1002
}
1002
{
1000
MANEDIT
1070
     0
1002
}
1002
{
1000
NOSEL
1070
     0
1002
}
1002
{
1000
BEHIND
1070
     0
1002
}
1002
{
1000
REACTOR
1002
}
1001
GENIUS_GENOBJ-N-FIL_13
1002
{
1000
OWNER
1000
GEN
1002
}
  0
LINE
  5
724
330
6C
100
AcDbEntity
  8
4
100
AcDbLine
 10
2069.972906907031
 20
-4103.430470576328
 30
0.0
 11
2069.972906907031
 21
-4203.430470576328
 31
0.0
1001
GENIUS_GENODEF_13
1002
{
1000
HIER
1070
     0
1002
}
1002
{
1000
MANEDIT
1070
     0
1002
}
1002
{
1000
NOSEL
1070
     0
1002
}
1002
{
1000
BEHIND
1070
     0
1002
}
1002
{
1000
REACTOR
1002
}
1001
GENIUS_GENOBJ-N-CEN_13
1002
{
1000
OWNER
1000
GEN
1002
}
  0
LINE
  5
725
330
6C
100
AcDbEntity
  8
4
100
AcDbLine
 10
2069.972906907031
 20
-4103.430470576328
 30
0.0
 11
2068.039832413313
 21
-4062.835906208631
 31
0.0
  0
ARC
  5
726
330
6C
100
AcDbEntity
  8
4
100
AcDbCircle
 10
2011.972906907002
 20
-3968.680470576299
 30
0.0
 40
2.5
100
AcDbArc
 50
180.0
 51
270.0
1001
GENIUS_GENODEF_13
1002
{
1000
HIER
1070
     0
1002
}
1002
{
1000
MANEDIT
1070
     0
1002
}
1002
{
1000
NOSEL
1070
     0
1002
}
1002
{
1000
BEHIND
1070
     0
1002
}
1002
{
1000
REACTOR
1002
}
1001
GENIUS_GENOBJ-N-FIL_13
1002
{
1000
OWNER
1000
GEN
1002
}
  0
LINE
  5
727
330
6C
100
AcDbEntity
  8
4
100
AcDbLine
 10
2011.972906907002
 20
-3971.180470576299
 30
0.0
 11
2029.472906907002
 21
-3971.180470576299
 31
0.0
  0
ARC
  5
728
330
6C
100
AcDbEntity
  8
4
100
AcDbCircle
 10
2029.472906907002
 20
-3973.680470576299
 30
0.0
 40
2.5
100
AcDbArc
 50
0.0
 51
90.0
1001
GENIUS_GENODEF_13
1002
{
1000
HIER
1070
     0
1002
}
1002
{
1000
MANEDIT
1070
     0
1002
}
1002
{
1000
NOSEL
1070
     0
1002
}
1002
{
1000
BEHIND
1070
     0
1002
}
1002
{
1000
REACTOR
1002
}
1001
GENIUS_GENOBJ-N-FIL_13
1002
{
1000
OWNER
1000
GEN
1002
}
  0
LINE
  5
729
330
6C
100
AcDbEntity
  8
4
100
AcDbLine
 10
2010.972906907002
 20
-3943.430470576328
 30
0.0
 11
2010.972906907002
 21
-3944.930470576328
 31
0.0
1001
GENIUS_GENODEF_13
1002
{
1000
HIER
1070
     0
1002
}
1002
{
1000
MANEDIT
1070
     0
1002
}
1002
{
1000
NOSEL
1070
     0
1002
}
1002
{
1000
BEHIND
1070
     0
1002
}
1002
{
1000
REACTOR
1002
}
1001
GENIUS_GENOBJ-N-CEN_13
1002
{
1000
OWNER
1000
GEN
1002
}
  0
LINE
  5
72A
330
6C
100
AcDbEntity
  8
4
100
AcDbLine
 10
2201.972906907002
 20
-4050.930470576328
 30
0.0
 11
2016.972906907002
 21
-4050.930470576328
 31
0.0
  0
LINE
  5
72B
330
6C
100
AcDbEntity
  8
4
100
AcDbLine
 10
2158.722906907031
 20
-4203.430470576328
 30
0.0
 11
2069.972906907031
 21
-4203.430470576328
 31
0.0
  0
LINE
  5
72C
330
6C
100
AcDbEntity
  8
4
100
AcDbLine
 10
2154.972906907031
 20
-4103.430470576328
 30
0.0
 11
2069.972906907031
 21
-4103.430470576328
 31
0.0
  0
LINE
  5
72D
330
6C
100
AcDbEntity
  8
4
100
AcDbLine
 10
2009.472906907002
 20
-3943.430470576328
 30
0.0
 11
2209.472906907002
 21
-3943.430470576328
 31
0.0
  0
LINE
  5
72E
330
6C
100
AcDbEntity
  8
4
100
AcDbLine
 10
2009.472906907002
 20
-3944.930470576328
 30
0.0
 11
2209.472906907002
 21
-3944.930470576328
 31
0.0
  0
LINE
  5
72F
330
6C
100
AcDbEntity
  8
4
100
AcDbLine
 10
2009.472906907002
 20
-3823.430470576328
 30
0.0
 11
2009.472906907002
 21
-3943.430470576328
 31
0.0
1001
GENIUS_GENODEF_13
1002
{
1000
HIER
1070
     0
1002
}
1002
{
1000
MANEDIT
1070
     0
1002
}
1002
{
1000
NOSEL
1070
     0
1002
}
1002
{
1000
BEHIND
1070
     0
1002
}
1002
{
1000
REACTOR
1002
}
1001
GENIUS_GENOBJ-N-CEN_13
1002
{
1000
OWNER
1000
GEN
1002
}
  0
LINE
  5
730
330
6C
100
AcDbEntity
  8
4
100
AcDbLine
 10
2209.472906907002
 20
-3823.430470576328
 30
0.0
 11
2209.472906907002
 21
-3943.430470576328
 31
0.0
1001
GENIUS_GENODEF_13
1002
{
1000
HIER
1070
     0
1002
}
1002
{
1000
MANEDIT
1070
     0
1002
}
1002
{
1000
NOSEL
1070
     0
1002
}
1002
{
1000
BEHIND
1070
     0
1002
}
1002
{
1000
REACTOR
1002
}
1001
GENIUS_GENOBJ-N-CEN_13
1002
{
1000
OWNER
1000
GEN
1002
}
  0
SPLINE
  5
731
330
6C
100
AcDbEntity
  8
4
100
AcDbSpline
210
0.0
220
0.0
230
1.0
 70
  1064
 71
     3
 72
    12
 73
     8
 74
     6
 42
0.0000000001
 43
0.0000000001
 44
0.0000000001
 40
0.0
 40
0.0
 40
0.0
 40
0.0
 40
23.98518724538482
 40
48.21222531332693
 40
74.41478635775895
 40
92.48889073134437
 40
99.15807596640007
 40
99.15807596640007
 40
99.15807596640007
 40
99.15807596640007
 10
2102.744735857065
 20
-3819.810529137576
 30
0.0
 10
2094.770011705488
 20
-3820.777383726951
 30
0.0
 10
2078.740151539129
 20
-3822.720842030247
 30
0.0
 10
2055.773679761747
 20
-3832.935786316625
 30
0.0
 10
2037.125220157728
 20
-3846.321655228861
 30
0.0
 10
2027.424935769933
 20
-3861.50486724598
 30
0.0
 10
2027.068877193759
 20
-3869.801589290022
 30
0.0
 10
2026.972906907002
 20
-3872.037847161577
 30
0.0
 11
2102.744735857065
 21
-3819.810529137576
 31
0.0
 11
2079.105242437974
 21
-3823.868060170724
 31
0.0
 11
2056.807066116308
 21
-3833.341217314643
 31
0.0
 11
2036.181211893883
 21
-3849.501302180834
 31
0.0
 11
2027.577216414357
 21
-3865.396097262732
 31
0.0
 11
2026.972906907002
 21
-3872.037847161577
 31
0.0
  0
SPLINE
  5
732
330
6C
100
AcDbEntity
  8
4
100
AcDbSpline
210
0.0
220
0.0
230
1.0
 70
  1064
 71
     3
 72
    12
 73
     8
 74
     6
 42
0.0000000001
 43
0.0000000001
 44
0.0000000001
 40
0.0
 40
0.0
 40
0.0
 40
0.0
 40
23.9851872454135
 40
48.21222531332884
 40
74.41478635778375
 40
92.48889073135531
 40
99.15807596641101
 40
99.15807596641101
 40
99.15807596641101
 40
99.15807596641101
 10
2116.201077956939
 20
-3819.810529137576
 30
0.0
 10
2124.175802108527
 20
-3820.777383726948
 30
0.0
 10
2140.205662274889
 20
-3822.720842030237
 30
0.0
 10
2163.172134052261
 20
-3832.935786316644
 30
0.0
 10
2181.820593656313
 20
-3846.32165522884
 30
0.0
 10
2191.520878044068
 20
-3861.504867245987
 30
0.0
 10
2191.876936620245
 20
-3869.801589290022
 30
0.0
 10
2191.972906907002
 20
-3872.037847161577
 30
0.0
 11
2116.201077956939
 21
-3819.810529137576
 31
0.0
 11
2139.840571376058
 21
-3823.868060170724
 31
0.0
 11
2162.138747697696
 21
-3833.341217314643
 31
0.0
 11
2182.764601920149
 21
-3849.501302180834
 31
0.0
 11
2191.368597399647
 21
-3865.396097262732
 31
0.0
 11
2191.972906907002
 21
-3872.037847161577
 31
0.0
  0
LINE
  5
733
330
6C
100
AcDbEntity
  8
4
100
AcDbLine
 10
2077.722906907031
 20
-4311.49067965088
 30
0.0
 11
2077.722906907031
 21
-4203.246647046901
 31
0.0
  0
LINE
  5
734
330
6C
100
AcDbEntity
  8
4
100
AcDbLine
 10
2141.222906907031
 20
-4311.49067965088
 30
0.0
 11
2141.222906907031
 21
-4203.246647046901
 31
0.0
  0
LINE
  5
735
330
6C
100
AcDbEntity
  8
4
100
AcDbLine
 10
2234.497906907025
 20
-4344.905470576304
 30
0.0
 11
2234.497906907025
 21
-4319.655470576334
 31
0.0
  0
LINE
  5
736
330
6C
100
AcDbEntity
  8
4
100
AcDbLine
 10
2067.847906907002
 20
-4328.905470576334
 30
0.0
 11
2067.847906907002
 21
-4311.905470576333
 31
0.0
  0
LINE
  5
737
330
6C
100
AcDbEntity
  8
4
100
AcDbLine
 10
2151.097906907002
 20
-4328.905470576334
 30
0.0
 11
2151.097906907002
 21
-4311.905470576333
 31
0.0
  0
LINE
  5
738
330
6C
100
AcDbEntity
  8
4
100
AcDbLine
 10
1984.447906907037
 20
-4344.880470576339
 30
0.0
 11
1984.447906907037
 21
-4319.655470576334
 31
0.0
  0
ARC
  5
739
330
6C
100
AcDbEntity
  8
4
100
AcDbCircle
 10
2109.472906907002
 20
-5210.930470576328
 30
0.0
 40
883.0000000000001
100
AcDbArc
 50
81.86003286744137
 51
98.1399671325586
  0
ARC
  5
73A
330
6C
100
AcDbEntity
  8
4
100
AcDbCircle
 10
2109.472906907002
 20
-5210.930470576328
 30
0.0
 40
900.0
100
AcDbArc
 50
82.0148485143776
 51
97.98515148562241
  0
LINE
  5
73B
330
6C
100
AcDbEntity
  8
0
  6
Continuous
 62
     3
100
AcDbLine
 10
8350.908398711764
 20
-4446.198896980604
 30
0.0
 11
8350.908398711764
 21
-4203.430470576328
 31
0.0
  0
LINE
  5
73C
330
6C
100
AcDbEntity
  8
0
  6
Continuous
 62
     3
100
AcDbLine
 10
8287.408398711749
 20
-4491.84696020322
 30
0.0
 11
8287.408398711749
 21
-4203.430470576328
 31
0.0
  0
LINE
  5
73D
330
6C
100
AcDbEntity
  8
0
  6
Continuous
 62
     3
100
AcDbLine
 10
8419.158398711749
 20
-3943.430470576328
 30
0.0
 11
8419.158398711763
 21
-3840.930470576328
 31
0.0
  0
LINE
  5
73E
330
6C
100
AcDbEntity
  8
0
  6
Continuous
 62
     3
100
AcDbLine
 10
8219.158398711748
 20
-3943.430470576328
 30
0.0
 11
8219.158398711762
 21
-3850.245905369775
 31
0.0
  0
LINE
  5
73F
330
6C
100
AcDbEntity
  8
0
  6
Continuous
 62
     3
100
AcDbLine
 10
8246.497281441495
 20
-4088.430470576327
 30
0.0
 11
8266.817943893068
 21
-4088.430470576327
 31
0.0
  0
LINE
  5
740
330
6C
100
AcDbEntity
  8
0
  6
Continuous
 62
     3
100
AcDbLine
 10
8226.658398711748
 20
-4050.930470576328
 30
0.0
 11
8411.658398711749
 21
-4050.930470576356
 31
0.0
  0
LINE
  5
741
330
6C
100
AcDbEntity
  8
0
  6
Continuous
 62
     3
100
AcDbLine
 10
8219.158398711748
 20
-3943.430470576328
 30
0.0
 11
8419.158398711749
 21
-3943.430470576328
 31
0.0
  0
LINE
  5
742
330
6C
100
AcDbEntity
  8
0
  6
Continuous
 62
     3
100
AcDbLine
 10
8219.158398711748
 20
-3944.930470576328
 30
0.0
 11
8419.158398711749
 21
-3944.930470576328
 31
0.0
  0
ARC
  5
743
330
6C
100
AcDbEntity
  8
0
  6
Continuous
 62
     3
100
AcDbCircle
 10
8246.498853530445
 20
-4085.930470576328
 30
0.0
 40
2.5
100
AcDbArc
 50
181.7825420799611
 51
270.0
1001
GENIUS_GENODEF_13
1002
{
1000
HIER
1070
     0
1002
}
1002
{
1000
MANEDIT
1070
     0
1002
}
1002
{
1000
NOSEL
1070
     0
1002
}
1002
{
1000
BEHIND
1070
     0
1002
}
1002
{
1000
REACTOR
1002
}
1001
GENIUS_GENOBJ-N-FIL_13
1002
{
1000
OWNER
1000
GEN
1002
}
  0
LINE
  5
744
330
6C
100
AcDbEntity
  8
0
  6
Continuous
 62
     3
100
AcDbLine
 10
8244.000063318527
 20
-4086.008236100831
 30
0.0
 11
8242.983781724513
 21
-4053.352705051824
 31
0.0
  0
ARC
  5
745
330
6C
100
AcDbEntity
  8
0
  6
Continuous
 62
     3
100
AcDbCircle
 10
8240.484991512596
 20
-4053.430470576328
 30
0.0
 40
2.5
100
AcDbArc
 50
1.782542079961059
 51
90.0
1001
GENIUS_GENODEF_13
1002
{
1000
HIER
1070
     0
1002
}
1002
{
1000
MANEDIT
1070
     0
1002
}
1002
{
1000
NOSEL
1070
     0
1002
}
1002
{
1000
BEHIND
1070
     0
1002
}
1002
{
1000
REACTOR
1002
}
1001
GENIUS_GENOBJ-N-FIL_13
1002
{
1000
OWNER
1000
GEN
1002
}
  0
LINE
  5
746
330
6C
100
AcDbEntity
  8
0
  6
Continuous
 62
     3
100
AcDbLine
 10
8241.658398711749
 20
-4050.930470576328
 30
0.0
 11
8241.658398711749
 21
-3973.680470576328
 31
0.0
  0
ARC
  5
747
330
6C
100
AcDbEntity
  8
0
  6
Continuous
 62
     3
100
AcDbCircle
 10
8221.658398711749
 20
-3968.680470576328
 30
0.0
 40
2.5
100
AcDbArc
 50
180.0
 51
270.0
1001
GENIUS_GENODEF_13
1002
{
1000
HIER
1070
     0
1002
}
1002
{
1000
MANEDIT
1070
     0
1002
}
1002
{
1000
NOSEL
1070
     0
1002
}
1002
{
1000
BEHIND
1070
     0
1002
}
1002
{
1000
REACTOR
1002
}
1001
GENIUS_GENOBJ-N-FIL_13
1002
{
1000
OWNER
1000
GEN
1002
}
  0
LINE
  5
748
330
6C
100
AcDbEntity
  8
0
  6
Continuous
 62
     3
100
AcDbLine
 10
8220.658398711762
 20
-3944.930470576328
 30
0.0
 11
8220.658398711762
 21
-3943.430470576328
 31
0.0
  0
ARC
  5
749
330
6C
100
AcDbEntity
  8
0
  6
Continuous
 62
     3
100
AcDbCircle
 10
8226.658398711748
 20
-4043.430470576327
 30
0.0
 40
7.5
100
AcDbArc
 50
180.0
 51
270.0
1001
GENIUS_GENODEF_13
1002
{
1000
HIER
1070
     0
1002
}
1002
{
1000
MANEDIT
1070
     0
1002
}
1002
{
1000
NOSEL
1070
     0
1002
}
1002
{
1000
BEHIND
1070
     0
1002
}
1002
{
1000
REACTOR
1002
}
1001
GENIUS_GENOBJ-N-FIL_13
1002
{
1000
OWNER
1000
GEN
1002
}
  0
LINE
  5
74A
330
6C
100
AcDbEntity
  8
0
  6
Continuous
 62
     3
100
AcDbLine
 10
8219.158398711748
 20
-4043.430470576327
 30
0.0
 11
8219.158398711748
 21
-3944.930470576328
 31
0.0
  0
LINE
  5
74B
330
6C
100
AcDbEntity
  8
0
  6
Continuous
 62
     3
100
AcDbLine
 10
8358.658398711748
 20
-4203.430470576328
 30
0.0
 11
8358.658398711748
 21
-4063.430470576327
 31
0.0
  0
LINE
  5
74C
330
6C
100
AcDbEntity
  8
0
  6
Continuous
 62
     3
100
AcDbLine
 10
8340.408398711749
 20
-4140.930470576328
 30
0.0
 11
8340.408398711749
 21
-4050.930470576328
 31
0.0
  0
LINE
  5
74D
330
6C
100
AcDbEntity
  8
0
  6
Continuous
 62
     3
100
AcDbLine
 10
8345.408398711748
 20
-4203.430470576328
 30
0.0
 11
8345.408398711748
 21
-4140.930470576328
 31
0.0
  0
ARC
  5
74E
330
6C
100
AcDbEntity
  8
0
  6
Continuous
 62
     3
100
AcDbCircle
 10
8371.158398711747
 20
-4063.430470576327
 30
0.0
 40
12.5
100
AcDbArc
 50
90.0
 51
180.0
1001
GENIUS_GENODEF_13
1002
{
1000
HIER
1070
     0
1002
}
1002
{
1000
MANEDIT
1070
     0
1002
}
1002
{
1000
NOSEL
1070
     0
1002
}
1002
{
1000
BEHIND
1070
     0
1002
}
1002
{
1000
REACTOR
1002
}
1001
GENIUS_GENOBJ-N-FIL_13
1002
{
1000
OWNER
1000
GEN
1002
}
  0
LINE
  5
74F
330
6C
100
AcDbEntity
  8
0
  6
Continuous
 62
     3
100
AcDbLine
 10
8396.658398711748
 20
-4050.930470576328
 30
0.0
 11
8396.658398711748
 21
-3973.680470576328
 31
0.0
  0
ARC
  5
750
330
6C
100
AcDbEntity
  8
0
  6
Continuous
 62
     3
100
AcDbCircle
 10
8266.817943893068
 20
-4085.930470576328
 30
0.0
 40
2.5
100
AcDbArc
 50
270.0
 51
358.217457920039
1001
GENIUS_GENODEF_13
1002
{
1000
HIER
1070
     0
1002
}
1002
{
1000
MANEDIT
1070
     0
1002
}
1002
{
1000
NOSEL
1070
     0
1002
}
1002
{
1000
BEHIND
1070
     0
1002
}
1002
{
1000
REACTOR
1002
}
1001
GENIUS_GENOBJ-N-FIL_13
1002
{
1000
OWNER
1000
GEN
1002
}
  0
LINE
  5
751
330
6C
100
AcDbEntity
  8
0
  6
Continuous
 62
     3
100
AcDbLine
 10
8279.658398711763
 20
-4203.430470576328
 30
0.0
 11
8279.658398711763
 21
-4063.430470576327
 31
0.0
  0
LINE
  5
752
330
6C
100
AcDbEntity
  8
0
  6
Continuous
 62
     3
100
AcDbLine
 10
8297.908398711749
 20
-4140.930470576328
 30
0.0
 11
8297.908398711749
 21
-4050.930470576328
 31
0.0
  0
LINE
  5
753
330
6C
100
AcDbEntity
  8
0
  6
Continuous
 62
     3
100
AcDbLine
 10
8292.908398711748
 20
-4203.430470576328
 30
0.0
 11
8292.908398711748
 21
-4140.930470576328
 31
0.0
  0
LINE
  5
754
330
6C
100
AcDbEntity
  8
0
  6
Continuous
 62
     3
100
AcDbLine
 10
8269.316734104984
 20
-4086.008236100831
 30
0.0
 11
8270.333015698998
 21
-4053.352705051824
 31
0.0
  0
ARC
  5
755
330
6C
100
AcDbEntity
  8
0
  6
Continuous
 62
     3
100
AcDbCircle
 10
8272.831805910916
 20
-4053.430470576328
 30
0.0
 40
2.5
100
AcDbArc
 50
90.0
 51
178.2174579200389
1001
GENIUS_GENODEF_13
1002
{
1000
HIER
1070
     0
1002
}
1002
{
1000
MANEDIT
1070
     0
1002
}
1002
{
1000
NOSEL
1070
     0
1002
}
1002
{
1000
BEHIND
1070
     0
1002
}
1002
{
1000
REACTOR
1002
}
1001
GENIUS_GENOBJ-N-FIL_13
1002
{
1000
OWNER
1000
GEN
1002
}
  0
ARC
  5
756
330
6C
100
AcDbEntity
  8
0
  6
Continuous
 62
     3
100
AcDbCircle
 10
8267.158398711762
 20
-4063.430470576327
 30
0.0
 40
12.5
100
AcDbArc
 50
0.0
 51
71.39392616506349
1001
GENIUS_GENODEF_13
1002
{
1000
HIER
1070
     0
1002
}
1002
{
1000
MANEDIT
1070
     0
1002
}
1002
{
1000
NOSEL
1070
     0
1002
}
1002
{
1000
BEHIND
1070
     0
1002
}
1002
{
1000
REACTOR
1002
}
1001
GENIUS_GENOBJ-N-FIL_13
1002
{
1000
OWNER
1000
GEN
1002
}
  0
LINE
  5
757
330
6C
100
AcDbEntity
  8
0
  6
Continuous
 62
     3
100
AcDbLine
 10
8279.658398711763
 20
-4203.430470576328
 30
0.0
 11
8358.658398711748
 21
-4203.430470576328
 31
0.0
  0
LINE
  5
758
330
6C
100
AcDbEntity
  8
0
  6
Continuous
 62
     3
100
AcDbLine
 10
8279.658398711763
 20
-4103.430470576328
 30
0.0
 11
8358.658398711748
 21
-4103.430470576328
 31
0.0
  0
LINE
  5
759
330
6C
100
AcDbEntity
  8
0
  6
Continuous
 62
     3
100
AcDbLine
 10
8292.908398711748
 20
-4140.930470576328
 30
0.0
 11
8345.408398711763
 21
-4140.930470576328
 31
0.0
  0
ARC
  5
75A
330
6C
100
AcDbEntity
  8
0
  6
Continuous
 62
     3
100
AcDbCircle
 10
8416.658398711764
 20
-3968.680470576328
 30
0.0
 40
2.5
100
AcDbArc
 50
270.0
 51
0.0
1001
GENIUS_GENODEF_13
1002
{
1000
HIER
1070
     0
1002
}
1002
{
1000
MANEDIT
1070
     0
1002
}
1002
{
1000
NOSEL
1070
     0
1002
}
1002
{
1000
BEHIND
1070
     0
1002
}
1002
{
1000
REACTOR
1002
}
1001
GENIUS_GENOBJ-N-FIL_13
1002
{
1000
OWNER
1000
GEN
1002
}
  0
LINE
  5
75B
330
6C
100
AcDbEntity
  8
0
  6
Continuous
 62
     3
100
AcDbLine
 10
8417.658398711749
 20
-3944.930470576328
 30
0.0
 11
8417.658398711777
 21
-3943.430470576328
 31
0.0
  0
ARC
  5
75C
330
6C
100
AcDbEntity
  8
0
  6
Continuous
 62
     3
100
AcDbCircle
 10
8411.658398711749
 20
-4043.430470576327
 30
0.0
 40
7.5
100
AcDbArc
 50
270.0
 51
0.0
1001
GENIUS_GENODEF_13
1002
{
1000
HIER
1070
     0
1002
}
1002
{
1000
MANEDIT
1070
     0
1002
}
1002
{
1000
NOSEL
1070
     0
1002
}
1002
{
1000
BEHIND
1070
     0
1002
}
1002
{
1000
REACTOR
1002
}
1001
GENIUS_GENOBJ-N-FIL_13
1002
{
1000
OWNER
1000
GEN
1002
}
  0
LINE
  5
75D
330
6C
100
AcDbEntity
  8
0
  6
Continuous
 62
     3
100
AcDbLine
 10
8419.158398711749
 20
-4043.430470576327
 30
0.0
 11
8419.158398711749
 21
-3944.930470576328
 31
0.0
  0
LINE
  5
75E
330
6C
100
AcDbEntity
  8
0
  6
Continuous
 62
     3
100
AcDbLine
 10
8410.830362751774
 20
-3649.50353619799
 30
0.0
 11
8170.151549398797
 21
-3818.02865559511
 31
0.0
  0
LINE
  5
75F
330
6C
100
AcDbEntity
  8
0
  6
Continuous
 62
     3
100
AcDbLine
 10
8488.900429804212
 20
-3661.37050182683
 30
0.0
 11
8168.148484371151
 21
-3885.963431914504
 31
0.0
  0
LINE
  5
760
330
6C
100
AcDbEntity
  8
0
  6
Continuous
 62
     3
100
AcDbLine
 10
8484.598606531596
 20
-3655.226861494674
 30
0.0
 11
8163.846661098521
 21
-3879.819791582348
 31
0.0
  0
ARC
  5
761
330
6C
100
AcDbEntity
  8
0
  6
Continuous
 62
     3
100
AcDbCircle
 10
8239.158398711749
 20
-3895.930470576328
 30
0.0
 40
2.5
100
AcDbArc
 50
270.0
 51
0.0
1001
GENIUS_GENODEF_13
1002
{
1000
HIER
1070
     0
1002
}
1002
{
1000
MANEDIT
1070
     0
1002
}
1002
{
1000
NOSEL
1070
     0
1002
}
1002
{
1000
BEHIND
1070
     0
1002
}
1002
{
1000
REACTOR
1002
}
1001
GENIUS_GENOBJ-N-FIL_13
1002
{
1000
OWNER
1000
GEN
1002
}
  0
LINE
  5
762
330
6C
100
AcDbEntity
  8
0
  6
Continuous
 62
     3
100
AcDbLine
 10
8241.658398711749
 20
-3895.930470576328
 30
0.0
 11
8241.658398711749
 21
-3834.491235760063
 31
0.0
  0
ARC
  5
763
330
6C
100
AcDbEntity
  8
0
  6
Continuous
 62
     3
100
AcDbCircle
 10
8221.658398711749
 20
-3900.930470576328
 30
0.0
 40
2.5
100
AcDbArc
 50
90.0
 51
180.0
1001
GENIUS_GENODEF_13
1002
{
1000
HIER
1070
     0
1002
}
1002
{
1000
MANEDIT
1070
     0
1002
}
1002
{
1000
NOSEL
1070
     0
1002
}
1002
{
1000
BEHIND
1070
     0
1002
}
1002
{
1000
REACTOR
1002
}
1001
GENIUS_GENOBJ-N-FIL_13
1002
{
1000
OWNER
1000
GEN
1002
}
  0
LINE
  5
764
330
6C
100
AcDbEntity
  8
0
  6
Continuous
 62
     3
100
AcDbLine
 10
8221.658398711749
 20
-3898.430470576328
 30
0.0
 11
8239.158398711749
 21
-3898.430470576328
 31
0.0
  0
LINE
  5
765
330
6C
100
AcDbEntity
  8
0
  6
Continuous
 62
     3
100
AcDbLine
 10
8176.13521680297
 20
-3880.37106166008
 30
0.0
 11
8171.833393530338
 21
-3874.227421327895
 31
0.0
  0
LINE
  5
766
330
6C
100
AcDbEntity
  8
0
  6
Continuous
 62
     3
100
AcDbLine
 10
8175.316064758678
 20
-3880.944638096429
 30
0.0
 11
8171.01424148606
 21
-3874.800997764273
 31
0.0
  0
LINE
  5
767
330
6C
100
AcDbEntity
  8
0
  6
Continuous
 62
     3
100
AcDbLine
 10
8168.148484371151
 20
-3885.963431914504
 30
0.0
 11
8159.882579571902
 21
-3874.158496451528
 31
0.0
  0
ARC
  5
768
330
6C
100
AcDbEntity
  8
0
  6
Continuous
 62
     3
100
AcDbCircle
 10
8174.453372671429
 20
-3824.172295927296
 30
0.0
 40
7.5
100
AcDbArc
 50
125.0000000000283
 51
169.9999999994528
1001
GENIUS_GENODEF_13
1002
{
1000
HIER
1070
     0
1002
}
1002
{
1000
MANEDIT
1070
     0
1002
}
1002
{
1000
NOSEL
1070
     0
1002
}
1002
{
1000
BEHIND
1070
     0
1002
}
1002
{
1000
REACTOR
1002
}
1001
GENIUS_GENOBJ-N-FIL_13
1002
{
1000
OWNER
1000
GEN
1002
}
  0
ARC
  5
769
330
6C
100
AcDbEntity
  8
0
  6
Continuous
 62
     3
100
AcDbCircle
 10
8165.002279848719
 20
-3870.573643724311
 30
0.0
 40
6.25
100
AcDbArc
 50
169.9999999994528
 51
214.9999999997892
1001
GENIUS_GENODEF_13
1002
{
1000
HIER
1070
     0
1002
}
1002
{
1000
MANEDIT
1070
     0
1002
}
1002
{
1000
NOSEL
1070
     0
1002
}
1002
{
1000
BEHIND
1070
     0
1002
}
1002
{
1000
REACTOR
1002
}
1001
GENIUS_GENOBJ-N-FIL_13
1002
{
1000
OWNER
1000
GEN
1002
}
  0
LINE
  5
76A
330
6C
100
AcDbEntity
  8
0
  6
Continuous
 62
     3
100
AcDbLine
 10
8167.067314523839
 20
-3822.869934594775
 30
0.0
 11
8158.847231392384
 21
-3869.488342613906
 31
0.0
1001
GENIUS_GENFIL_13
1070
     0
1040
15.0
1040
15.0
1040
20.0
1040
0.0
1002
{
1002
}
1001
GENIUS_GENODEF_13
1002
{
1000
HIER
1070
     0
1002
}
1002
{
1000
MANEDIT
1070
     0
1002
}
1002
{
1000
NOSEL
1070
     0
1002
}
1002
{
1000
BEHIND
1070
     0
1002
}
1002
{
1000
REACTOR
1002
}
1001
GENIUS_GENOBJ-N-CHA_13
1002
{
1000
OWNER
1000
GEN
1002
}
  0
LINE
  5
76B
330
6C
100
AcDbEntity
  8
0
  6
Continuous
 62
     3
100
AcDbLine
 10
8183.507585201573
 20
-3875.208873732911
 30
0.0
 11
8179.20576192894
 21
-3869.065233400754
 31
0.0
  0
LINE
  5
76C
330
6C
100
AcDbEntity
  8
0
  6
Continuous
 62
     3
100
AcDbLine
 10
8182.688433157293
 20
-3875.78245016926
 30
0.0
 11
8178.386609884649
 21
-3869.638809837102
 31
0.0
  0
LINE
  5
76D
330
6C
100
AcDbEntity
  8
0
  6
Continuous
 62
     3
100
AcDbLine
 10
8477.021450121915
 20
-3660.532443530909
 30
0.0
 11
8309.250342489322
 21
-3420.930470576328
 31
0.0
  0
LINE
  5
76E
330
6C
100
AcDbEntity
  8
0
  6
Continuous
 62
     3
100
AcDbLine
 10
8473.744841944746
 20
-3662.826749276334
 30
0.0
 11
8305.973734312166
 21
-3423.224776321724
 31
0.0
  0
LINE
  5
76F
330
6C
100
AcDbEntity
  8
0
  6
Continuous
 62
     3
100
AcDbLine
 10
8416.658398711764
 20
-3898.430470576328
 30
0.0
 11
8399.158398711763
 21
-3898.430470576328
 31
0.0
  0
LINE
  5
770
330
6C
100
AcDbEntity
  8
0
  6
Continuous
 62
     3
100
AcDbLine
 10
8419.158398711763
 20
-3840.930470576328
 30
0.0
 11
8381.658398711762
 21
-3815.930470576328
 31
0.0
  0
LINE
  5
771
330
6C
100
AcDbEntity
  8
0
  6
Continuous
 62
     3
100
AcDbLine
 10
8348.427022826596
 20
-3776.516690906043
 30
0.0
 11
8453.472528902072
 21
-3689.229321573359
 31
0.0
  0
LINE
  5
772
330
6C
100
AcDbEntity
  8
0
  6
Continuous
 62
     3
100
AcDbLine
 10
8396.658398711762
 20
-3895.930470576328
 30
0.0
 11
8396.658398711748
 21
-3825.930470576328
 31
0.0
  0
ARC
  5
773
330
6C
100
AcDbEntity
  8
0
  6
Continuous
 62
     3
100
AcDbCircle
 10
8399.158398711763
 20
-3895.930470576328
 30
0.0
 40
2.5
100
AcDbArc
 50
180.0
 51
270.0
1001
GENIUS_GENODEF_13
1002
{
1000
HIER
1070
     0
1002
}
1002
{
1000
MANEDIT
1070
     0
1002
}
1002
{
1000
NOSEL
1070
     0
1002
}
1002
{
1000
BEHIND
1070
     0
1002
}
1002
{
1000
REACTOR
1002
}
1001
GENIUS_GENOBJ-N-FIL_13
1002
{
1000
OWNER
1000
GEN
1002
}
  0
LINE
  5
774
330
6C
100
AcDbEntity
  8
0
  6
Continuous
 62
     3
100
AcDbLine
 10
8389.158398711762
 20
-3813.430470576328
 30
0.0
 11
8389.158398711762
 21
-3820.930470576328
 31
0.0
  0
LINE
  5
775
330
6C
100
AcDbEntity
  8
0
  6
Continuous
 62
     3
100
AcDbLine
 10
8381.658398711747
 20
-3813.430470576328
 30
0.0
 11
8348.427022826596
 21
-3776.516690906043
 31
0.0
  0
LINE
  5
776
330
6C
100
AcDbEntity
  8
0
  6
Continuous
 62
     3
100
AcDbLine
 10
8268.165918512517
 20
-3815.930470576328
 30
0.0
 11
8381.658398711762
 21
-3815.930470576328
 31
0.0
  0
LINE
  5
777
330
6C
100
AcDbEntity
  8
0
  6
Continuous
 62
     3
100
AcDbLine
 10
8271.736288529369
 20
-3813.430470576328
 30
0.0
 11
8389.158398711748
 21
-3813.430470576328
 31
0.0
  0
LINE
  5
778
330
6C
100
AcDbEntity
  8
0
  6
Continuous
 62
     3
100
AcDbLine
 10
8488.900429804212
 20
-3661.37050182683
 30
0.0
 11
8484.598606531493
 21
-3655.226861494528
 31
0.0
  0
LINE
  5
779
330
6C
100
AcDbEntity
  8
0
  6
Continuous
 62
     3
100
AcDbLine
 10
8476.408361128793
 20
-3670.117542481188
 30
0.0
 11
8472.106537856175
 21
-3663.973902149002
 31
0.0
  0
LINE
  5
77A
330
6C
100
AcDbEntity
  8
0
  6
Continuous
 62
     3
100
AcDbLine
 10
8475.589209084516
 20
-3670.691118917537
 30
0.0
 11
8471.287385811884
 21
-3664.547478585381
 31
0.0
  0
LINE
  5
77B
330
6C
100
AcDbEntity
  8
0
  6
Continuous
 62
     3
100
AcDbLine
 10
8482.961577483104
 20
-3665.528930990368
 30
0.0
 11
8478.659754210472
 21
-3659.385290658211
 31
0.0
  0
LINE
  5
77C
330
6C
100
AcDbEntity
  8
0
  6
Continuous
 62
     3
100
AcDbLine
 10
8483.780729527396
 20
-3664.955354554019
 30
0.0
 11
8479.478906254765
 21
-3658.811714221862
 31
0.0
  0
ARC
  5
77D
330
6C
100
AcDbEntity
  8
0
  6
Continuous
 62
     3
100
AcDbCircle
 10
8416.658398711764
 20
-3900.930470576328
 30
0.0
 40
2.5
100
AcDbArc
 50
0.0
 51
90.0
1001
GENIUS_GENODEF_13
1002
{
1000
HIER
1070
     0
1002
}
1002
{
1000
MANEDIT
1070
     0
1002
}
1002
{
1000
NOSEL
1070
     0
1002
}
1002
{
1000
BEHIND
1070
     0
1002
}
1002
{
1000
REACTOR
1002
}
1001
GENIUS_GENOBJ-N-FIL_13
1002
{
1000
OWNER
1000
GEN
1002
}
  0
ARC
  5
77E
330
6C
100
AcDbEntity
  8
0
  6
Continuous
 62
     3
100
AcDbCircle
 10
8415.13218602442
 20
-3655.647176530147
 30
0.0
 40
7.5
100
AcDbArc
 50
79.99999999952518
 51
125.0000000000283
1001
GENIUS_GENODEF_13
1002
{
1000
HIER
1070
     0
1002
}
1002
{
1000
MANEDIT
1070
     0
1002
}
1002
{
1000
NOSEL
1070
     0
1002
}
1002
{
1000
BEHIND
1070
     0
1002
}
1002
{
1000
REACTOR
1002
}
1001
GENIUS_GENOBJ-N-FIL_13
1002
{
1000
OWNER
1000
GEN
1002
}
  0
LINE
  5
77F
330
6C
100
AcDbEntity
  8
0
  6
Continuous
 62
     3
100
AcDbLine
 10
8416.434547356926
 20
-3648.261118382558
 30
0.0
 11
8463.014261437143
 21
-3656.474378728591
 31
0.0
1001
GENIUS_GENFIL_13
1070
     0
1040
15.0
1040
15.0
1040
20.0
1040
0.0
1002
{
1002
}
1001
GENIUS_GENODEF_13
1002
{
1000
HIER
1070
     0
1002
}
1002
{
1000
MANEDIT
1070
     0
1002
}
1002
{
1000
NOSEL
1070
     0
1002
}
1002
{
1000
BEHIND
1070
     0
1002
}
1002
{
1000
REACTOR
1002
}
1001
GENIUS_GENOBJ-N-CHA_13
1002
{
1000
OWNER
1000
GEN
1002
}
  0
LINE
  5
780
330
6C
100
AcDbEntity
  8
0
  6
Continuous
 62
     3
100
AcDbLine
 10
8468.162920592003
 20
-3675.891062100935
 30
0.0
 11
8463.861097319357
 21
-3669.747421768749
 31
0.0
  0
LINE
  5
781
330
6C
100
AcDbEntity
  8
0
  6
Continuous
 62
     3
100
AcDbLine
 10
8467.343768547712
 20
-3676.464638537284
 30
0.0
 11
8463.04194527508
 21
-3670.320998205098
 31
0.0
  0
LINE
  5
782
330
6C
100
AcDbEntity
  8
0
  6
Continuous
 62
     3
100
AcDbLine
 10
8459.971400149107
 20
-3681.626826464424
 30
0.0
 11
8455.669576876477
 21
-3675.483186132267
 31
0.0
  0
LINE
  5
783
330
6C
100
AcDbEntity
  8
0
  6
Continuous
 62
     3
100
AcDbLine
 10
8460.790552193385
 20
-3681.053250028104
 30
0.0
 11
8456.488728920755
 21
-3674.909609695919
 31
0.0
  0
ARC
  5
784
330
6C
100
AcDbEntity
  8
0
  6
Continuous
 62
     3
100
AcDbCircle
 10
8461.928960326725
 20
-3662.629427184926
 30
0.0
 40
6.25
100
AcDbArc
 50
34.99999999978924
 51
79.99999999952518
1001
GENIUS_GENODEF_13
1002
{
1000
HIER
1070
     0
1002
}
1002
{
1000
MANEDIT
1070
     0
1002
}
1002
{
1000
NOSEL
1070
     0
1002
}
1002
{
1000
BEHIND
1070
     0
1002
}
1002
{
1000
REACTOR
1002
}
1001
GENIUS_GENOBJ-N-FIL_13
1002
{
1000
OWNER
1000
GEN
1002
}
  0
LINE
  5
785
330
6C
100
AcDbEntity
  8
0
  6
Continuous
 62
     3
100
AcDbLine
 10
8453.472528902072
 20
-3689.229321573359
 30
0.0
 11
8452.0385878112
 21
-3687.18144146265
 31
0.0
  0
LINE
  5
786
330
6C
100
AcDbEntity
  8
0
  6
Continuous
 62
     3
100
AcDbLine
 10
8471.028677706883
 20
-3664.728627950703
 30
0.0
 11
8467.048660603513
 21
-3659.044574457738
 31
0.0
  0
LINE
  5
787
330
6C
100
AcDbEntity
  8
0
  6
Continuous
 62
     3
100
AcDbLine
 10
8309.250342489322
 20
-3420.930470576328
 30
0.0
 11
8305.973734312166
 21
-3423.224776321724
 31
0.0
  0
LINE
  5
788
330
6C
100
AcDbEntity
  8
SEN
  6
Continuous
 62
     2
100
AcDbLine
 10
11500.22857542942
 20
-5700.000000000022
 30
0.0
 11
23500.22857542943
 21
-5700.000000000022
 31
0.0
  0
LINE
  5
789
330
6C
100
AcDbEntity
  8
SEN
  6
Continuous
 62
     1
100
AcDbLine
 10
11500.22857542948
 20
-9900.000000000023
 30
0.0
 11
23500.22857542949
 21
-9900.000000000023
 31
0.0
  0
LINE
  5
78A
330
6C
100
AcDbEntity
  8
SEN
  6
Continuous
 62
     1
100
AcDbLine
 10
11500.22857542948
 20
-9300.000000000022
 30
0.0
 11
23500.22857542949
 21
-9300.000000000022
 31
0.0
  0
LINE
  5
78B
330
6C
100
AcDbEntity
  8
SEN
  6
Continuous
 62
     1
100
AcDbLine
 10
11500.22857542948
 20
-8700.000000000022
 30
0.0
 11
23500.22857542949
 21
-8700.000000000022
 31
0.0
  0
LINE
  5
78C
330
6C
100
AcDbEntity
  8
SEN
  6
Continuous
 62
     1
100
AcDbLine
 10
11500.22857542948
 20
-10500.00000000002
 30
0.0
 11
23500.22857542949
 21
-10500.00000000002
 31
0.0
  0
LINE
  5
78D
330
6C
100
AcDbEntity
  8
SEN
  6
Continuous
 62
     1
100
AcDbLine
 10
11500.22857542948
 20
-11100.00000000002
 30
0.0
 11
23500.22857542949
 21
-11100.00000000002
 31
0.0
  0
LINE
  5
78E
330
6C
100
AcDbEntity
  8
SEN
  6
Continuous
 62
     1
100
AcDbLine
 10
11500.22857542948
 20
-8100.00000000002
 30
0.0
 11
23500.22857542949
 21
-8100.00000000002
 31
0.0
  0
LINE
  5
78F
330
6C
100
AcDbEntity
  8
SEN
  6
Continuous
 62
     1
100
AcDbLine
 10
11500.22857542948
 20
-7500.000000000021
 30
0.0
 11
23500.22857542949
 21
-7500.000000000021
 31
0.0
  0
LINE
  5
790
330
6C
100
AcDbEntity
  8
SEN
  6
Continuous
 62
     1
100
AcDbLine
 10
11500.22857542948
 20
-6300.000000000022
 30
0.0
 11
23500.22857542949
 21
-6300.000000000022
 31
0.0
  0
LINE
  5
791
330
6C
100
AcDbEntity
  8
SEN
  6
Continuous
 62
     1
100
AcDbLine
 10
11500.22857542948
 20
-6900.000000000021
 30
0.0
 11
23500.22857542949
 21
-6900.000000000021
 31
0.0
  0
LINE
  5
792
330
6C
100
AcDbEntity
  8
SEN
  6
Continuous
 62
     1
100
AcDbLine
 10
11500.22857542942
 20
-15900.00000000002
 30
0.0
 11
23500.22857542949
 21
-15900.00000000002
 31
0.0
  0
LINE
  5
793
330
6C
100
AcDbEntity
  8
SEN
  6
Continuous
 62
     1
100
AcDbLine
 10
11500.22857542942
 20
-15300.00000000002
 30
0.0
 11
23500.22857542949
 21
-15300.00000000002
 31
0.0
  0
LINE
  5
794
330
6C
100
AcDbEntity
  8
SEN
  6
Continuous
 62
     1
100
AcDbLine
 10
11500.22857542942
 20
-14700.00000000002
 30
0.0
 11
23500.22857542949
 21
-14700.00000000002
 31
0.0
  0
LINE
  5
795
330
6C
100
AcDbEntity
  8
SEN
  6
Continuous
 62
     1
100
AcDbLine
 10
11500.22857542942
 20
-16500.00000000002
 30
0.0
 11
23500.22857542949
 21
-16500.00000000002
 31
0.0
  0
LINE
  5
796
330
6C
100
AcDbEntity
  8
SEN
  6
Continuous
 62
     1
100
AcDbLine
 10
11500.22857542942
 20
-17100.00000000002
 30
0.0
 11
23500.22857542949
 21
-17100.00000000002
 31
0.0
  0
LINE
  5
797
330
6C
100
AcDbEntity
  8
SEN
  6
Continuous
 62
     1
100
AcDbLine
 10
11500.22857542942
 20
-14100.00000000002
 30
0.0
 11
23500.22857542949
 21
-14100.00000000002
 31
0.0
  0
LINE
  5
798
330
6C
100
AcDbEntity
  8
SEN
  6
Continuous
 62
     1
100
AcDbLine
 10
11500.22857542942
 20
-13500.00000000002
 30
0.0
 11
23500.22857542949
 21
-13500.00000000002
 31
0.0
  0
LINE
  5
799
330
6C
100
AcDbEntity
  8
SEN
  6
Continuous
 62
     1
100
AcDbLine
 10
11500.22857542942
 20
-11700.00000000002
 30
0.0
 11
23500.22857542949
 21
-11700.00000000002
 31
0.0
  0
LINE
  5
79A
330
6C
100
AcDbEntity
  8
SEN
  6
Continuous
 62
     1
100
AcDbLine
 10
11500.22857542942
 20
-12300.00000000002
 30
0.0
 11
23500.22857542949
 21
-12300.00000000002
 31
0.0
  0
LINE
  5
79B
330
6C
100
AcDbEntity
  8
SEN
  6
Continuous
 62
     1
100
AcDbLine
 10
11500.22857542942
 20
-12900.00000000002
 30
0.0
 11
23500.22857542949
 21
-12900.00000000002
 31
0.0
  0
LINE
  5
79C
330
6C
100
AcDbEntity
  8
SEN
  6
Continuous
 62
     1
100
AcDbLine
 10
11500.22857542942
 20
-18900.00000000002
 30
0.0
 11
23500.22857542943
 21
-18900.00000000002
 31
0.0
  0
LINE
  5
79D
330
6C
100
AcDbEntity
  8
SEN
  6
Continuous
 62
     1
100
AcDbLine
 10
11500.22857542942
 20
-18300.00000000002
 30
0.0
 11
23500.22857542943
 21
-18300.00000000002
 31
0.0
  0
LINE
  5
79E
330
6C
100
AcDbEntity
  8
SEN
  6
Continuous
 62
     1
100
AcDbLine
 10
11500.22857542942
 20
-17700.00000000002
 30
0.0
 11
23500.22857542943
 21
-17700.00000000002
 31
0.0
  0
LINE
  5
79F
330
6C
100
AcDbEntity
  8
SEN
  6
Continuous
 62
     1
100
AcDbLine
 10
11500.22857542942
 20
-19500.00000000002
 30
0.0
 11
23500.22857542943
 21
-19500.00000000002
 31
0.0
  0
LINE
  5
7A0
330
6C
100
AcDbEntity
  8
SEN
  6
Continuous
 62
     1
100
AcDbLine
 10
11500.22857542942
 20
-20100.00000000002
 30
0.0
 11
23500.22857542943
 21
-20100.00000000002
 31
0.0
  0
LINE
  5
7A1
330
6C
100
AcDbEntity
  8
SEN
  6
Continuous
 62
     1
100
AcDbLine
 10
11500.22857542942
 20
-20700.00000000002
 30
0.0
 11
23500.22857542943
 21
-20700.00000000002
 31
0.0
  0
LINE
  5
7A2
330
6C
100
AcDbEntity
  8
SEN
  6
Continuous
 62
     1
100
AcDbLine
 10
11500.22857542942
 20
-21900.00000000002
 30
0.0
 11
23500.22857542943
 21
-21900.00000000002
 31
0.0
  0
LINE
  5
7A3
330
6C
100
AcDbEntity
  8
SEN
  6
Continuous
 62
     1
100
AcDbLine
 10
11500.22857542942
 20
-21300.00000000002
 30
0.0
 11
23500.22857542943
 21
-21300.00000000002
 31
0.0
  0
LINE
  5
7A4
330
6C
100
AcDbEntity
  8
SEN
  6
Continuous
 62
     2
100
AcDbLine
 10
11500.22857542942
 20
-23700.00000000002
 30
0.0
 11
23500.22857542943
 21
-23700.00000000002
 31
0.0
  0
LINE
  5
7A5
330
6C
100
AcDbEntity
  8
SEN
  6
Continuous
 62
     1
100
AcDbLine
 10
11500.22857542942
 20
-22500.00000000002
 30
0.0
 11
23500.22857542943
 21
-22500.00000000002
 31
0.0
  0
LINE
  5
7A6
330
6C
100
AcDbEntity
  8
SEN
  6
Continuous
 62
     1
100
AcDbLine
 10
11500.22857542942
 20
-23100.00000000002
 30
0.0
 11
23500.22857542943
 21
-23100.00000000002
 31
0.0
  0
LINE
  5
7A7
330
6C
100
AcDbEntity
  8
SEN
  6
Continuous
 62
     2
100
AcDbLine
 10
11500.22857542948
 20
-5700.000000000022
 30
0.0
 11
11500.22857542942
 21
-23700.00000000002
 31
0.0
  0
LINE
  5
7A8
330
6C
100
AcDbEntity
  8
SEN
  6
Continuous
 62
     2
100
AcDbLine
 10
23500.22857542949
 20
-5700.000000000022
 30
0.0
 11
23500.22857542943
 21
-23700.00000000002
 31
0.0
  0
TEXT
  5
7A9
330
6C
100
AcDbEntity
  8
MOJI
  6
Continuous
 62
     4
100
AcDbText
 10
12000.2285754295
 20
-17030.00003801604
 30
0.0
 40
300.0
  1
制御部（ポールに内装）
100
AcDbText
  0
TEXT
  5
7AA
330
6C
100
AcDbEntity
  8
MOJI
  6
Continuous
 62
     4
100
AcDbText
 10
12000.22857542947
 20
-15230.00003801604
 30
0.0
 40
300.0
  1
主柱
100
AcDbText
  0
TEXT
  5
7AB
330
6C
100
AcDbEntity
  8
MOJI
  6
Continuous
 62
     4
100
AcDbText
 10
12000.22857542947
 20
-14630.00003801604
 30
0.0
 40
300.0
  1
ポール部
100
AcDbText
  0
TEXT
  5
7AC
330
6C
100
AcDbEntity
  8
MOJI
  6
Continuous
 62
     4
100
AcDbText
 10
12000.2285754295
 20
-9230.000000000023
 30
0.0
 40
300.0
  1
機体
100
AcDbText
  0
TEXT
  5
7AD
330
6C
100
AcDbEntity
  8
MOJI
  6
Continuous
 62
     4
100
AcDbText
 10
12000.2285754295
 20
-8630.000000000022
 30
0.0
 40
300.0
  1
ガラス
100
AcDbText
  0
TEXT
  5
7AE
330
6C
100
AcDbEntity
  8
MOJI
  6
Continuous
 62
     4
100
AcDbText
 10
12000.2285754295
 20
-8030.000000000022
 30
0.0
 40
300.0
  1
指針
100
AcDbText
  0
TEXT
  5
7AF
330
6C
100
AcDbEntity
  8
MOJI
  6
Continuous
 62
     4
100
AcDbText
 10
12000.2285754295
 20
-7430.000000000022
 30
0.0
 40
300.0
  1
文字板
100
AcDbText
  0
TEXT
  5
7B0
330
6C
100
AcDbEntity
  8
MOJI
  6
Continuous
 62
     4
100
AcDbText
 10
12000.2285754295
 20
-6830.000000000023
 30
0.0
 40
300.0
  1
ケース
100
AcDbText
  0
TEXT
  5
7B1
330
6C
100
AcDbEntity
  8
MOJI
  6
Continuous
 62
     4
100
AcDbText
 10
12000.2285754295
 20
-6230.000000000021
 30
0.0
 40
300.0
  1
時計部
100
AcDbText
  0
TEXT
  5
7B2
330
6C
100
AcDbEntity
  8
MOJI
  6
Continuous
 62
     4
100
AcDbText
 10
16000.22857542947
 20
-15230.00003801604
 30
0.0
 40
300.0
  1
%%C165.2 チョコレート色
100
AcDbText
  0
LINE
  5
7B3
330
6C
100
AcDbEntity
  8
SEN
  6
Continuous
 62
     2
100
AcDbLine
 10
15500.22857542947
 20
-14700.00003801604
 30
0.0
 11
15500.22857542946
 21
-16500.00000000002
 31
0.0
  0
TEXT
  5
7B4
330
6C
100
AcDbEntity
  8
MOJI
  6
Continuous
 62
     4
100
AcDbText
 10
16000.22857542948
 20
-7430.000000000022
 30
0.0
 40
300.0
  1
アルミニウム 白色　文字\U+2026黒色
100
AcDbText
  0
TEXT
  5
7B5
330
6C
100
AcDbEntity
  8
MOJI
  6
Continuous
 62
     4
100
AcDbText
 10
16000.22857542948
 20
-6830.000000000023
 30
0.0
 40
300.0
  1
鋼板製 チョコレート色
100
AcDbText
  0
TEXT
  5
7B6
330
6C
100
AcDbEntity
  8
MOJI
  6
Continuous
 62
     4
100
AcDbText
 10
16000.22857542948
 20
-8630.000000000022
 30
0.0
 40
300.0
  1
透明 強化ガラス t4
100
AcDbText
  0
TEXT
  5
7B7
330
6C
100
AcDbEntity
  8
MOJI
  6
Continuous
 62
     4
100
AcDbText
 10
16000.22857542948
 20
-8030.000000000022
 30
0.0
 40
300.0
  1
アルミニウム 黒色
100
AcDbText
  0
TEXT
  5
7B8
330
6C
100
AcDbEntity
  8
MOJI
  6
Continuous
 62
     4
100
AcDbText
 10
16000.22857542948
 20
-9230.000000000023
 30
0.0
 40
300.0
  1
DC3.6V 有極30秒運針
100
AcDbText
  0
LINE
  5
7B9
330
6C
100
AcDbEntity
  8
SEN
  6
Continuous
 62
     2
100
AcDbLine
 10
15500.2285754295
 20
-6300.000000000022
 30
0.0
 11
15500.22857542948
 21
-9900.000000000023
 31
0.0
  0
TEXT
  5
7BA
330
6C
100
AcDbEntity
  8
MOJI
  6
Continuous
 62
     4
100
AcDbText
 10
12000.2285754295
 20
-17030.00003801604
 30
0.0
 40
300.0
  1
制御部（ポールに内装）
100
AcDbText
  0
TEXT
  5
7BB
330
6C
100
AcDbEntity
  8
MOJI
  6
Continuous
 62
     4
100
AcDbText
 10
12000.22857542947
 20
-17630.00003801604
 30
0.0
 40
300.0
  1
水晶発振周波数
100
AcDbText
  0
TEXT
  5
7BC
330
6C
100
AcDbEntity
  8
MOJI
  6
Continuous
 62
     4
100
AcDbText
 10
12000.22857542947
 20
-19430.00003801604
 30
0.0
 40
300.0
  1
出力信号
100
AcDbText
  0
TEXT
  5
7BD
330
6C
100
AcDbEntity
  8
MOJI
  6
Continuous
 62
     4
100
AcDbText
 10
12000.22857542947
 20
-18830.00003801604
 30
0.0
 40
300.0
  1
使用温度範囲
100
AcDbText
  0
TEXT
  5
7BE
330
6C
100
AcDbEntity
  8
MOJI
  6
Continuous
 62
     4
100
AcDbText
 10
12000.22857542947
 20
-18230.00003801604
 30
0.0
 40
300.0
  1
精度
100
AcDbText
  0
LINE
  5
7BF
330
6C
100
AcDbEntity
  8
SEN
  6
Continuous
 62
     2
100
AcDbLine
 10
15500.22857542944
 20
-21900.00000000002
 30
0.0
 11
15500.22857542944
 21
-23700.00000000002
 31
0.0
  0
TEXT
  5
7C0
330
6C
100
AcDbEntity
  8
MOJI
  6
Continuous
 62
     4
100
AcDbText
 10
16000.22857542947
 20
-18230.00003801604
 30
0.0
 40
300.0
  1
週差%%p1.2秒以内（電波修正により積算誤差0秒）
 41
0.9
100
AcDbText
  0
TEXT
  5
7C1
330
6C
100
AcDbEntity
  8
MOJI
  6
Continuous
 62
     4
100
AcDbText
 10
16000.22857542947
 20
-19430.00003801604
 30
0.0
 40
300.0
  1
DC3.6V 30秒有極信号
100
AcDbText
  0
TEXT
  5
7C2
330
6C
100
AcDbEntity
  8
MOJI
  6
Continuous
 62
     4
100
AcDbText
 10
16000.22857542947
 20
-17630.00003801604
 30
0.0
 40
300.0
  1
32.768kHz
100
AcDbText
  0
LINE
  5
7C3
330
6C
100
AcDbEntity
  8
SEN
  6
Continuous
 62
     2
100
AcDbLine
 10
15500.22857542948
 20
-17100.00003801601
 30
0.0
 11
15500.22857542947
 21
-21300.00000000002
 31
0.0
  0
TEXT
  5
7C4
330
6C
100
AcDbEntity
  8
MOJI
  6
Continuous
 62
     4
100
AcDbText
 10
16000.22857542947
 20
-18830.00003801604
 30
0.0
 40
300.0
  1
-20%%dC～+60%%dC
100
AcDbText
  0
TEXT
  5
7C5
330
6C
100
AcDbEntity
  8
MOJI
  6
Continuous
 62
     4
100
AcDbText
 10
12000.22857542947
 20
-22429.99999999999
 30
0.0
 40
300.0
  1
動作補償日数
100
AcDbText
  0
TEXT
  5
7C6
330
6C
100
AcDbEntity
  8
MOJI
  6
Continuous
 62
     4
100
AcDbText
 10
12000.22857542947
 20
-21829.99999999999
 30
0.0
 40
300.0
  1
動作補償（蓄電部　満充電時より）
100
AcDbText
  0
TEXT
  5
7C7
330
6C
100
AcDbEntity
  8
MOJI
  6
Continuous
 62
     4
100
AcDbText
 10
16000.22857542948
 20
-22429.99999999999
 30
0.0
 40
300.0
  1
約30日（完全無日照時の場合）
100
AcDbText
  0
TEXT
  5
7C8
330
6C
100
AcDbEntity
  8
MOJI
  6
Continuous
 62
     4
100
AcDbText
 10
12000.2285754295
 20
-20630.00003801606
 30
0.0
 40
300.0
  1
蓄電部
100
AcDbText
  0
TEXT
  5
7C9
330
6C
100
AcDbEntity
  8
MOJI
  6
Continuous
 62
     4
100
AcDbText
 10
16000.22857542947
 20
-20630.00003801606
 30
0.0
 40
300.0
  1
電気二重層コンデンサ　1300F\U+00D72
100
AcDbText
  0
TEXT
  5
7CB
330
6C
100
AcDbEntity
  8
MOJI
  6
Continuous
 62
     4
100
AcDbText
 10
12000.22857542947
 20
-10430.00003801623
 30
0.0
 40
300.0
  1
太陽電池付長波アンテナ
100
AcDbText
  0
TEXT
  5
7CC
330
6C
100
AcDbEntity
  8
MOJI
  6
Continuous
 62
     4
100
AcDbText
 10
12000.22857542947
 20
-11630.00003801624
 30
0.0
 40
300.0
  1
太陽電池
100
AcDbText
  0
TEXT
  5
7CD
330
6C
100
AcDbEntity
  8
MOJI
  6
Continuous
 62
     4
100
AcDbText
 10
12000.22857542947
 20
-12230.00003801624
 30
0.0
 40
300.0
  1
アンテナ
100
AcDbText
  0
TEXT
  5
7CE
330
6C
100
AcDbEntity
  8
MOJI
  6
Continuous
 62
     4
100
AcDbText
 10
12000.22857542947
 20
-11030.00003801623
 30
0.0
 40
300.0
  1
ケース
100
AcDbText
  0
TEXT
  5
7CF
330
6C
100
AcDbEntity
  8
MOJI
  6
Continuous
 62
     4
100
AcDbText
 10
16000.22857542947
 20
-12830.00003801624
 30
0.0
 40
300.0
  1
40kHz/60kHz　自動選択
100
AcDbText
  0
TEXT
  5
7D0
330
6C
100
AcDbEntity
  8
MOJI
  6
Continuous
 62
     4
100
AcDbText
 10
16000.22857542947
 20
-13430.00003801624
 30
0.0
 40
300.0
  1
受信感度　50dB
100
AcDbText
  0
TEXT
  5
7D1
330
6C
100
AcDbEntity
  8
MOJI
  6
Continuous
 62
     4
100
AcDbText
 10
16000.22857542947
 20
-12230.00003801624
 30
0.0
 40
300.0
  1
受信周波数　長波帯標準電波
100
AcDbText
  0
TEXT
  5
7D2
330
6C
100
AcDbEntity
  8
MOJI
  6
Continuous
 62
     4
100
AcDbText
 10
16000.22857542947
 20
-11030.00003801623
 30
0.0
 40
300.0
  1
樹脂製
100
AcDbText
  0
LINE
  5
7D3
330
6C
100
AcDbEntity
  8
SEN
  6
Continuous
 62
     2
100
AcDbLine
 10
15500.22857542947
 20
-10500.00003801623
 30
0.0
 11
15500.22857542948
 21
-14100.00000000001
 31
0.0
  0
TEXT
  5
7D4
330
6C
100
AcDbEntity
  8
MOJI
  6
Continuous
 62
     4
100
AcDbText
 10
16000.22857542947
 20
-11630.00003801624
 30
0.0
 40
300.0
  1
DC5.4Ｖ　450mW
100
AcDbText
  0
TEXT
  5
7D5
330
6C
100
AcDbEntity
  8
MOJI
  6
Continuous
 62
     4
100
AcDbText
 10
12000.22857542947
 20
-20030.00000000015
 30
0.0
 40
300.0
  1
サマータイム
100
AcDbText
  0
TEXT
  5
7D6
330
6C
100
AcDbEntity
  8
MOJI
  6
Continuous
 62
     4
100
AcDbText
 10
16000.22857542947
 20
-20030.00000000015
 30
0.0
 40
300.0
  1
自動式
100
AcDbText
  0
ENDSEC
  0
SECTION
  2
OBJECTS
  0
DICTIONARY
  5
C
330
0
100
AcDbDictionary
281
     1
  3
ACAD_2007HEADERVARS_RT
350
83F
  3
ACAD_CIP_PREVIOUS_PRODUCT_INFO
350
77
  3
ACAD_COLOR
350
63
  3
ACAD_GROUP
350
D
  3
ACAD_LAYOUT
350
62
  3
ACAD_MATERIAL
350
10
  3
ACAD_MLEADERSTYLE
350
66
  3
ACAD_MLINESTYLE
350
5F
  3
ACAD_PLOTSETTINGS
350
61
  3
ACAD_PLOTSTYLENAME
350
E
  3
ACAD_SCALELIST
350
42
  3
ACAD_TABLESTYLE
350
64
  3
ACAD_VISUALSTYLE
350
29
  3
ACDB_RECOMPOSE_DATA
350
83E
  3
AcDbVariableDictionary
350
831
  3
AcmDictionary
350
A4
  3
AMG
350
78
  3
AMGSNAPSETTINGS
350
46B
  0
DICTIONARY
  5
FC
330
2
100
AcDbDictionary
280
     1
281
     1
  3
ACAD_LAYERSTATES
360
FD
  0
DICTIONARY
  5
E9
330
E8
100
AcDbDictionary
280
     1
281
     1
  0
DICTIONARY
  5
EB
330
EA
100
AcDbDictionary
280
     1
281
     1
  0
DICTIONARY
  5
ED
330
EC
100
AcDbDictionary
280
     1
281
     1
  0
DICTIONARY
  5
EF
330
EE
100
AcDbDictionary
280
     1
281
     1
  0
DICTIONARY
  5
F1
330
F0
100
AcDbDictionary
280
     1
281
     1
  0
DICTIONARY
  5
83F
102
{ACAD_REACTORS
330
C
102
}
330
C
100
AcDbDictionary
281
     1
  3
DIMARCSYM
350
840
  3
DIMLTEX1
350
842
  3
DIMLTEX2
350
843
  3
DIMLTYPE
350
841
  0
XRECORD
  5
77
102
{ACAD_REACTORS
330
C
102
}
330
C
100
AcDbXrecord
280
     1
300
AMECH_PP
300
2012
300
AMECH_PP_F_S
  0
DICTIONARY
  5
63
102
{ACAD_REACTORS
330
C
102
}
330
C
100
AcDbDictionary
281
     1
  0
DICTIONARY
  5
D
102
{ACAD_REACTORS
330
C
102
}
330
C
100
AcDbDictionary
281
     1
  0
DICTIONARY
  5
62
102
{ACAD_REACTORS
330
C
102
}
330
C
100
AcDbDictionary
281
     1
  3
Model
350
6F
  3
レイアウト1
350
6B
  3
レイアウト2
350
73
  0
DICTIONARY
  5
10
102
{ACAD_REACTORS
330
C
102
}
330
C
100
AcDbDictionary
281
     1
  3
ByBlock
350
19
  3
ByLayer
350
11
  3
Global
350
21
  0
DICTIONARY
  5
66
102
{ACAD_REACTORS
330
C
102
}
330
C
100
AcDbDictionary
281
     1
  3
Standard
350
67
  0
DICTIONARY
  5
5F
102
{ACAD_REACTORS
330
C
102
}
330
C
100
AcDbDictionary
281
     1
  3
Standard
350
60
  0
DICTIONARY
  5
61
102
{ACAD_REACTORS
330
C
102
}
330
C
100
AcDbDictionary
281
     1
  0
ACDBDICTIONARYWDFLT
  5
E
102
{ACAD_REACTORS
330
C
102
}
330
C
100
AcDbDictionary
281
     1
  3
Normal
350
F
100
AcDbDictionaryWithDefault
340
F
  0
DICTIONARY
  5
42
102
{ACAD_REACTORS
330
C
102
}
330
C
100
AcDbDictionary
281
     1
  3
A0
350
43
  3
A1
350
44
  3
A2
350
45
  3
A3
350
46
  3
A4
350
47
  3
A5
350
48
  3
A6
350
49
  3
A7
350
4A
  3
A8
350
4B
  3
A9
350
4C
  3
B0
350
4D
  3
B1
350
4E
  3
B2
350
4F
  3
B3
350
50
  3
B4
350
51
  3
B5
350
52
  3
B6
350
53
  0
DICTIONARY
  5
64
102
{ACAD_REACTORS
330
C
102
}
330
C
100
AcDbDictionary
281
     1
  3
Standard
350
65
  0
DICTIONARY
  5
29
102
{ACAD_REACTORS
330
C
102
}
330
C
100
AcDbDictionary
281
     1
  3
2dWireframe
350
2F
  3
3dWireframe
350
FB
  3
Basic
350
2E
  3
Brighten
350
35
  3
ColorChange
350
39
  3
Conceptual
350
32
  3
Dim
350
34
  3
EdgeColorOff
350
41
  3
Facepattern
350
38
  3
Flat
350
2A
  3
FlatWithEdges
350
2B
  3
Gouraud
350
2C
  3
GouraudWithEdges
350
2D
  3
Hidden
350
31
  3
JitterOff
350
3F
  3
Linepattern
350
37
  3
OverhangOff
350
40
  3
Realistic
350
33
  3
Shaded
350
3E
  3
Shaded with edges
350
3D
  3
Shades of Gray
350
3A
  3
Sketchy
350
3B
  3
Thicken
350
36
  3
Wireframe
350
30
  3
X-Ray
350
3C
  0
XRECORD
  5
83E
102
{ACAD_REACTORS
330
C
102
}
330
C
100
AcDbXrecord
280
     1
 90
        1
330
65
  0
DICTIONARY
  5
831
102
{ACAD_REACTORS
330
C
102
}
330
C
100
AcDbDictionary
281
     1
  3
CANNOSCALE
350
835
  3
CMLEADERSTYLE
350
833
  3
CTABLESTYLE
350
832
  3
LAYEREVAL
350
837
  3
LAYERNOTIFY
350
838
  3
LIGHTINGUNITS
350
836
  3
MSLTSCALE
350
834
  3
XCLIPFRAME
350
839
  0
DICTIONARY
  5
A4
102
{ACAD_REACTORS
330
C
102
}
330
C
100
AcDbDictionary
281
     1
  3
AcmStdDictionary
350
A6
  0
DICTIONARY
  5
78
102
{ACAD_REACTORS
330
C
102
}
330
C
100
AcDbDictionary
281
     1
  0
DICTIONARY
  5
46B
102
{ACAD_REACTORS
330
C
102
}
330
C
100
AcDbDictionary
281
     1
  0
DICTIONARY
  5
FD
102
{ACAD_REACTORS
330
FC
102
}
330
FC
100
AcDbDictionary
281
     1
  0
XRECORD
  5
840
102
{ACAD_REACTORS
330
83F
102
}
330
83F
100
AcDbXrecord
280
     1
 70
     1
  0
XRECORD
  5
842
102
{ACAD_REACTORS
330
83F
102
}
330
83F
100
AcDbXrecord
280
     1
340
5B
  0
XRECORD
  5
843
102
{ACAD_REACTORS
330
83F
102
}
330
83F
100
AcDbXrecord
280
     1
340
5B
  0
XRECORD
  5
841
102
{ACAD_REACTORS
330
83F
102
}
330
83F
100
AcDbXrecord
280
     1
340
5B
  0
LAYOUT
  5
6F
102
{ACAD_REACTORS
330
62
102
}
330
62
100
AcDbPlotSettings
  1

  2
PDF Complete
  4

  6

 40
0.0
 41
0.0
 42
0.0
 43
0.0
 44
0.0
 45
0.0
 46
0.0
 47
0.0
 48
0.0
 49
0.0
140
0.0
141
0.0
142
1.0
143
1.0
 70
  1712
 72
     0
 73
     0
 74
     0
  7

 75
     0
147
1.0
 76
     0
 77
     2
 78
   300
148
0.0
149
0.0
100
AcDbLayout
  1
Model
 70
     1
 71
     0
 10
0.0
 20
0.0
 11
12.0
 21
9.0
 12
0.0
 22
0.0
 32
0.0
 14
0.0
 24
0.0
 34
0.0
 15
0.0
 25
0.0
 35
0.0
146
0.0
 13
0.0
 23
0.0
 33
0.0
 16
1.0
 26
0.0
 36
0.0
 17
0.0
 27
1.0
 37
0.0
 76
     0
330
6C
331
57
  0
LAYOUT
  5
6B
102
{ACAD_REACTORS
330
62
102
}
330
62
100
AcDbPlotSettings
  1

  2
PDF Complete
  4

  6

 40
0.0
 41
0.0
 42
0.0
 43
0.0
 44
0.0
 45
0.0
 46
0.0
 47
0.0
 48
0.0
 49
0.0
140
0.0
141
0.0
142
1.0
143
1.0
 70
   688
 72
     0
 73
     0
 74
     5
  7

 75
    16
147
1.0
 76
     0
 77
     2
 78
   300
148
0.0
149
0.0
100
AcDbLayout
  1
レイアウト1
 70
     1
 71
     1
 10
0.0
 20
0.0
 11
420.0
 21
297.0
 12
0.0
 22
0.0
 32
0.0
 14
1.000000000000000E+20
 24
1.000000000000000E+20
 34
1.000000000000000E+20
 15
-1.000000000000000E+20
 25
-1.000000000000000E+20
 35
-1.000000000000000E+20
146
0.0
 13
0.0
 23
0.0
 33
0.0
 16
1.0
 26
0.0
 36
0.0
 17
0.0
 27
1.0
 37
0.0
 76
     0
330
68
  0
LAYOUT
  5
73
102
{ACAD_REACTORS
330
62
102
}
330
62
100
AcDbPlotSettings
  1

  2
PDF Complete
  4

  6

 40
0.0
 41
0.0
 42
0.0
 43
0.0
 44
0.0
 45
0.0
 46
0.0
 47
0.0
 48
0.0
 49
0.0
140
0.0
141
0.0
142
1.0
143
1.0
 70
   688
 72
     0
 73
     0
 74
     5
  7

 75
    16
147
1.0
 76
     0
 77
     2
 78
   300
148
0.0
149
0.0
100
AcDbLayout
  1
レイアウト2
 70
     1
 71
     2
 10
0.0
 20
0.0
 11
12.0
 21
9.0
 12
0.0
 22
0.0
 32
0.0
 14
0.0
 24
0.0
 34
0.0
 15
0.0
 25
0.0
 35
0.0
146
0.0
 13
0.0
 23
0.0
 33
0.0
 16
1.0
 26
0.0
 36
0.0
 17
0.0
 27
1.0
 37
0.0
 76
     0
330
70
  0
MATERIAL
  5
19
102
{ACAD_XDICTIONARY
360
1A
102
}
102
{ACAD_REACTORS
330
10
102
}
330
10
100
AcDbMaterial
  1
ByBlock
 72
     0
 43
0.0208333333333333
 43
0.0
 43
0.0
 43
0.0
 43
0.0
 43
0.0208333333333333
 43
0.0
 43
0.0
 43
0.0
 43
0.0
 43
1.0
 43
0.0
 43
0.0
 43
0.0
 43
0.0
 43
1.0
 77
     0
 47
0.0208333333333333
 47
0.0
 47
0.0
 47
0.0
 47
0.0
 47
0.0208333333333333
 47
0.0
 47
0.0
 47
0.0
 47
0.0
 47
1.0
 47
0.0
 47
0.0
 47
0.0
 47
0.0
 47
1.0
171
     0
 49
0.0208333333333333
 49
0.0
 49
0.0
 49
0.0
 49
0.0
 49
0.0208333333333333
 49
0.0
 49
0.0
 49
0.0
 49
0.0
 49
1.0
 49
0.0
 49
0.0
 49
0.0
 49
0.0
 49
1.0
175
     0
142
0.0208333333333333
142
0.0
142
0.0
142
0.0
142
0.0
142
0.0208333333333333
142
0.0
142
0.0
142
0.0
142
0.0
142
1.0
142
0.0
142
0.0
142
0.0
142
0.0
142
1.0
179
     0
144
0.0208333333333333
144
0.0
144
0.0
144
0.0
144
0.0
144
0.0208333333333333
144
0.0
144
0.0
144
0.0
144
0.0
144
1.0
144
0.0
144
0.0
144
0.0
144
0.0
144
1.0
147
0.0208333333333333
147
0.0
147
0.0
147
0.0
147
0.0
147
0.0208333333333333
147
0.0
147
0.0
147
0.0
147
0.0
147
1.0
147
0.0
147
0.0
147
0.0
147
0.0
147
1.0
  0
MATERIAL
  5
11
102
{ACAD_XDICTIONARY
360
12
102
}
102
{ACAD_REACTORS
330
10
102
}
330
10
100
AcDbMaterial
  1
ByLayer
 72
     0
 43
0.0208333333333333
 43
0.0
 43
0.0
 43
0.0
 43
0.0
 43
0.0208333333333333
 43
0.0
 43
0.0
 43
0.0
 43
0.0
 43
1.0
 43
0.0
 43
0.0
 43
0.0
 43
0.0
 43
1.0
 77
     0
 47
0.0208333333333333
 47
0.0
 47
0.0
 47
0.0
 47
0.0
 47
0.0208333333333333
 47
0.0
 47
0.0
 47
0.0
 47
0.0
 47
1.0
 47
0.0
 47
0.0
 47
0.0
 47
0.0
 47
1.0
171
     0
 49
0.0208333333333333
 49
0.0
 49
0.0
 49
0.0
 49
0.0
 49
0.0208333333333333
 49
0.0
 49
0.0
 49
0.0
 49
0.0
 49
1.0
 49
0.0
 49
0.0
 49
0.0
 49
0.0
 49
1.0
175
     0
142
0.0208333333333333
142
0.0
142
0.0
142
0.0
142
0.0
142
0.0208333333333333
142
0.0
142
0.0
142
0.0
142
0.0
142
1.0
142
0.0
142
0.0
142
0.0
142
0.0
142
1.0
179
     0
144
0.0208333333333333
144
0.0
144
0.0
144
0.0
144
0.0
144
0.0208333333333333
144
0.0
144
0.0
144
0.0
144
0.0
144
1.0
144
0.0
144
0.0
144
0.0
144
0.0
144
1.0
147
0.0208333333333333
147
0.0
147
0.0
147
0.0
147
0.0
147
0.0208333333333333
147
0.0
147
0.0
147
0.0
147
0.0
147
1.0
147
0.0
147
0.0
147
0.0
147
0.0
147
1.0
  0
MATERIAL
  5
21
102
{ACAD_XDICTIONARY
360
22
102
}
102
{ACAD_REACTORS
330
10
102
}
330
10
100
AcDbMaterial
  1
Global
 72
     0
 43
0.0208333333333333
 43
0.0
 43
0.0
 43
0.0
 43
0.0
 43
0.0208333333333333
 43
0.0
 43
0.0
 43
0.0
 43
0.0
 43
1.0
 43
0.0
 43
0.0
 43
0.0
 43
0.0
 43
1.0
 77
     0
 47
0.0208333333333333
 47
0.0
 47
0.0
 47
0.0
 47
0.0
 47
0.0208333333333333
 47
0.0
 47
0.0
 47
0.0
 47
0.0
 47
1.0
 47
0.0
 47
0.0
 47
0.0
 47
0.0
 47
1.0
171
     0
 49
0.0208333333333333
 49
0.0
 49
0.0
 49
0.0
 49
0.0
 49
0.0208333333333333
 49
0.0
 49
0.0
 49
0.0
 49
0.0
 49
1.0
 49
0.0
 49
0.0
 49
0.0
 49
0.0
 49
1.0
175
     0
142
0.0208333333333333
142
0.0
142
0.0
142
0.0
142
0.0
142
0.0208333333333333
142
0.0
142
0.0
142
0.0
142
0.0
142
1.0
142
0.0
142
0.0
142
0.0
142
0.0
142
1.0
179
     0
144
0.0208333333333333
144
0.0
144
0.0
144
0.0
144
0.0
144
0.0208333333333333
144
0.0
144
0.0
144
0.0
144
0.0
144
1.0
144
0.0
144
0.0
144
0.0
144
0.0
144
1.0
147
0.0208333333333333
147
0.0
147
0.0
147
0.0
147
0.0
147
0.0208333333333333
147
0.0
147
0.0
147
0.0
147
0.0
147
1.0
147
0.0
147
0.0
147
0.0
147
0.0
147
1.0
  0
MLEADERSTYLE
  5
67
102
{ACAD_XDICTIONARY
360
83C
102
}
102
{ACAD_REACTORS
330
66
102
}
330
66
100
AcDbMLeaderStyle
170
     2
171
     1
172
     0
 90
        2
 40
0.0
 41
0.0
173
     1
 91
-1056964608
340
5B
 92
       -2
290
     1
 42
0.09
291
     1
 43
0.36
  3
Standard
 44
0.18
300

342
55
174
     1
178
     6
175
     1
176
     0
 93
-1056964608
 45
0.18
292
     0
297
     0
 46
0.18
 94
-1056964608
 47
1.0
 49
1.0
140
1.0
293
     1
141
0.0
294
     1
177
     0
142
1.0
295
     0
296
     0
143
0.125
1001
ACAD_MLEADERVER
1070
     2
  0
MLINESTYLE
  5
60
102
{ACAD_REACTORS
330
5F
102
}
330
5F
100
AcDbMlineStyle
  2
STANDARD
 70
     0
  3

 62
   256
 51
90.0
 52
90.0
 71
     2
 49
0.5
 62
   256
  6
BYLAYER
 49
-0.5
 62
   256
  6
BYLAYER
  0
ACDBPLACEHOLDER
  5
F
102
{ACAD_REACTORS
330
E
102
}
330
E
  0
SCALE
  5
43
102
{ACAD_REACTORS
330
42
102
}
330
42
100
AcDbScale
 70
     0
300
1:1
140
1.0
141
1.0
290
     1
  0
SCALE
  5
44
102
{ACAD_REACTORS
330
42
102
}
330
42
100
AcDbScale
 70
     0
300
1:2
140
1.0
141
2.0
290
     0
  0
SCALE
  5
45
102
{ACAD_REACTORS
330
42
102
}
330
42
100
AcDbScale
 70
     0
300
1:4
140
1.0
141
4.0
290
     0
  0
SCALE
  5
46
102
{ACAD_REACTORS
330
42
102
}
330
42
100
AcDbScale
 70
     0
300
1:5
140
1.0
141
5.0
290
     0
  0
SCALE
  5
47
102
{ACAD_REACTORS
330
42
102
}
330
42
100
AcDbScale
 70
     0
300
1:8
140
1.0
141
8.0
290
     0
  0
SCALE
  5
48
102
{ACAD_REACTORS
330
42
102
}
330
42
100
AcDbScale
 70
     0
300
1:10
140
1.0
141
10.0
290
     0
  0
SCALE
  5
49
102
{ACAD_REACTORS
330
42
102
}
330
42
100
AcDbScale
 70
     0
300
1:16
140
1.0
141
16.0
290
     0
  0
SCALE
  5
4A
102
{ACAD_REACTORS
330
42
102
}
330
42
100
AcDbScale
 70
     0
300
1:20
140
1.0
141
20.0
290
     0
  0
SCALE
  5
4B
102
{ACAD_REACTORS
330
42
102
}
330
42
100
AcDbScale
 70
     0
300
1:30
140
1.0
141
30.0
290
     0
  0
SCALE
  5
4C
102
{ACAD_REACTORS
330
42
102
}
330
42
100
AcDbScale
 70
     0
300
1:40
140
1.0
141
40.0
290
     0
  0
SCALE
  5
4D
102
{ACAD_REACTORS
330
42
102
}
330
42
100
AcDbScale
 70
     0
300
1:50
140
1.0
141
50.0
290
     0
  0
SCALE
  5
4E
102
{ACAD_REACTORS
330
42
102
}
330
42
100
AcDbScale
 70
     0
300
1:100
140
1.0
141
100.0
290
     0
  0
SCALE
  5
4F
102
{ACAD_REACTORS
330
42
102
}
330
42
100
AcDbScale
 70
     0
300
2:1
140
2.0
141
1.0
290
     0
  0
SCALE
  5
50
102
{ACAD_REACTORS
330
42
102
}
330
42
100
AcDbScale
 70
     0
300
4:1
140
4.0
141
1.0
290
     0
  0
SCALE
  5
51
102
{ACAD_REACTORS
330
42
102
}
330
42
100
AcDbScale
 70
     0
300
8:1
140
8.0
141
1.0
290
     0
  0
SCALE
  5
52
102
{ACAD_REACTORS
330
42
102
}
330
42
100
AcDbScale
 70
     0
300
10:1
140
10.0
141
1.0
290
     0
  0
SCALE
  5
53
102
{ACAD_REACTORS
330
42
102
}
330
42
100
AcDbScale
 70
     0
300
100:1
140
100.0
141
1.0
290
     0
  0
TABLESTYLE
  5
65
102
{ACAD_XDICTIONARY
360
83A
102
}
102
{ACAD_REACTORS
330
64
102
}
330
64
100
AcDbTableStyle
  3
Standard
 70
     0
 71
     0
 40
1.5
 41
1.5
280
     0
281
     0
  7
STANDARD
140
4.5
170
     2
 62
     0
 63
     7
283
     0
274
    -2
284
     1
 64
     0
275
    -2
285
     1
 65
     0
276
    -2
286
     1
 66
     0
277
    -2
287
     1
 67
     0
278
    -2
288
     1
 68
     0
279
    -2
289
     1
 69
     0
  7
STANDARD
140
6.0
170
     5
 62
     0
 63
     7
283
     0
274
    -2
284
     1
 64
     0
275
    -2
285
     1
 65
     0
276
    -2
286
     1
 66
     0
277
    -2
287
     1
 67
     0
278
    -2
288
     1
 68
     0
279
    -2
289
     1
 69
     0
  7
STANDARD
140
4.5
170
     5
 62
     0
 63
     7
283
     0
274
    -2
284
     1
 64
     0
275
    -2
285
     1
 65
     0
276
    -2
286
     1
 66
     0
277
    -2
287
     1
 67
     0
278
    -2
288
     1
 68
     0
279
    -2
289
     1
 69
     0
  0
VISUALSTYLE
  5
2F
102
{ACAD_XDICTIONARY
360
851
102
}
102
{ACAD_REACTORS
330
29
102
}
330
29
100
AcDbVisualStyle
  2
2dWireframe
 70
     4
 71
     0
 72
     2
 73
     0
 90
        0
 40
-0.6
 41
-30.0
 62
     5
 63
     7
421
 16777215
 74
     1
 91
        4
 64
     7
 65
   257
 75
     1
175
     1
 42
1.0
 92
        0
 66
   257
 43
1.0
 76
     1
 77
     6
 78
     2
 67
     7
 79
     5
170
     0
171
     0
290
     0
174
     0
 93
        1
 44
0.0
173
     0
291
     0
 45
0.0
1001
ACAD
1000
AcDbSavedByObjectVersion
1070
     0
  0
VISUALSTYLE
  5
FB
102
{ACAD_XDICTIONARY
360
87E
102
}
102
{ACAD_REACTORS
330
29
102
}
330
29
100
AcDbVisualStyle
  2
3dWireframe
 70
     5
 71
     0
 72
     2
 73
     0
 90
        0
 40
-0.6
 41
-30.0
 62
     5
 63
     7
421
 16777215
 74
     1
 91
        4
 64
     7
 65
   257
 75
     1
175
     1
 42
1.0
 92
        0
 66
   257
 43
1.0
 76
     1
 77
     6
 78
     2
 67
     7
 79
     5
170
     0
171
     0
290
     0
174
     0
 93
        1
 44
0.0
173
     0
291
     0
 45
0.0
1001
ACAD
1000
AcDbSavedByObjectVersion
1070
     0
  0
VISUALSTYLE
  5
2E
102
{ACAD_XDICTIONARY
360
84F
102
}
102
{ACAD_REACTORS
330
29
102
}
330
29
100
AcDbVisualStyle
  2
Basic
 70
     7
 71
     1
 72
     0
 73
     1
 90
        0
 40
-0.6
 41
-30.0
 62
     5
 63
     7
421
 16777215
 74
     0
 91
        4
 64
     7
 65
   257
 75
     1
175
     1
 42
1.0
 92
        8
 66
     7
 43
1.0
 76
     1
 77
     6
 78
     2
 67
     7
 79
     5
170
     0
171
     0
290
     0
174
     0
 93
        1
 44
0.0
173
     0
291
     1
 45
0.0
1001
ACAD
1000
AcDbSavedByObjectVersion
1070
     0
  0
VISUALSTYLE
  5
35
102
{ACAD_XDICTIONARY
360
85D
102
}
102
{ACAD_REACTORS
330
29
102
}
330
29
100
AcDbVisualStyle
  2
Brighten
 70
    12
 71
     2
 72
     2
 73
     0
 90
        0
 40
-0.6
 41
-30.0
 62
     5
 63
     7
421
 16777215
 74
     1
 91
        4
 64
     7
 65
   257
 75
     1
175
     1
 42
1.0
 92
        8
 66
     7
 43
1.0
 76
     1
 77
     6
 78
     2
 67
     7
 79
     5
170
     0
171
     0
290
     0
174
     0
 93
        1
 44
50.0
173
     0
291
     1
 45
0.0
1001
ACAD
1000
AcDbSavedByObjectVersion
1070
     0
  0
VISUALSTYLE
  5
39
102
{ACAD_XDICTIONARY
360
865
102
}
102
{ACAD_REACTORS
330
29
102
}
330
29
100
AcDbVisualStyle
  2
ColorChange
 70
    16
 71
     2
 72
     2
 73
     3
 90
        0
 40
-0.6
 41
-30.0
 62
     5
 63
     8
421
  8421504
 74
     1
 91
        4
 64
     7
 65
   257
 75
     1
175
     1
 42
1.0
 92
        8
 66
     8
424
  8421504
 43
1.0
 76
     1
 77
     6
 78
     2
 67
     7
 79
     5
170
     0
171
     0
290
     0
174
     0
 93
        1
 44
0.0
173
     0
291
     1
 45
0.0
1001
ACAD
1000
AcDbSavedByObjectVersion
1070
     0
  0
VISUALSTYLE
  5
32
102
{ACAD_XDICTIONARY
360
857
102
}
102
{ACAD_REACTORS
330
29
102
}
330
29
100
AcDbVisualStyle
  2
Conceptual
 70
     9
 71
     3
 72
     2
 73
     0
 90
        0
 40
-0.6
 41
-30.0
 62
     5
 63
     7
421
 16777215
 74
     2
 91
        2
 64
     7
 65
   257
 75
     1
175
     1
 42
179.0
 92
        8
 66
     7
 43
1.0
 76
     1
 77
     6
 78
     2
 67
     7
 79
     3
170
     0
171
     0
290
     0
174
     0
 93
        1
 44
0.0
173
     0
291
     0
 45
0.0
1001
ACAD
1000
AcDbSavedByObjectVersion
1070
     0
  0
VISUALSTYLE
  5
34
102
{ACAD_XDICTIONARY
360
85B
102
}
102
{ACAD_REACTORS
330
29
102
}
330
29
100
AcDbVisualStyle
  2
Dim
 70
    11
 71
     2
 72
     2
 73
     0
 90
        0
 40
-0.6
 41
-30.0
 62
     5
 63
     7
421
 16777215
 74
     1
 91
        4
 64
     7
 65
   257
 75
     1
175
     1
 42
1.0
 92
        8
 66
     7
 43
1.0
 76
     1
 77
     6
 78
     2
 67
     7
 79
     5
170
     0
171
     0
290
     0
174
     0
 93
        1
 44
-50.0
173
     0
291
     1
 45
0.0
1001
ACAD
1000
AcDbSavedByObjectVersion
1070
     0
  0
VISUALSTYLE
  5
41
102
{ACAD_XDICTIONARY
360
875
102
}
102
{ACAD_REACTORS
330
29
102
}
330
29
100
AcDbVisualStyle
  2
EdgeColorOff
 70
    22
 71
     2
 72
     2
 73
     0
 90
        0
 40
-0.6
 41
-30.0
 62
     5
 63
     7
421
 16777215
 74
     1
 91
        4
 64
     7
 65
   257
 75
     1
175
     1
 42
1.0
 92
        8
 66
     7
 43
1.0
 76
     1
 77
     6
 78
     2
 67
     7
 79
     5
170
     0
171
     0
290
     0
174
     0
 93
        1
 44
0.0
173
     0
291
     1
 45
0.0
1001
ACAD
1000
AcDbSavedByObjectVersion
1070
     0
  0
VISUALSTYLE
  5
38
102
{ACAD_XDICTIONARY
360
863
102
}
102
{ACAD_REACTORS
330
29
102
}
330
29
100
AcDbVisualStyle
  2
Facepattern
 70
    15
 71
     2
 72
     2
 73
     0
 90
        0
 40
-0.6
 41
-30.0
 62
     5
 63
     7
421
 16777215
 74
     1
 91
        4
 64
     7
 65
   257
 75
     1
175
     1
 42
1.0
 92
        8
 66
     7
 43
1.0
 76
     1
 77
     6
 78
     2
 67
     7
 79
     5
170
     0
171
     0
290
     0
174
     0
 93
        1
 44
0.0
173
     0
291
     1
 45
0.0
1001
ACAD
1000
AcDbSavedByObjectVersion
1070
     0
  0
VISUALSTYLE
  5
2A
102
{ACAD_XDICTIONARY
360
847
102
}
102
{ACAD_REACTORS
330
29
102
}
330
29
100
AcDbVisualStyle
  2
Flat
 70
     0
 71
     2
 72
     1
 73
     1
 90
        2
 40
-0.6
 41
30.0
 62
     5
 63
     7
421
 16777215
 74
     0
 91
        0
 64
     7
 65
   257
 75
     1
175
     1
 42
1.0
 92
        8
 66
     7
 43
1.0
 76
     1
 77
     6
 78
     2
 67
     7
 79
     5
170
     0
171
     0
290
     0
174
     0
 93
       13
 44
0.0
173
     0
291
     1
 45
0.0
1001
ACAD
1000
AcDbSavedByObjectVersion
1070
     0
  0
VISUALSTYLE
  5
2B
102
{ACAD_XDICTIONARY
360
849
102
}
102
{ACAD_REACTORS
330
29
102
}
330
29
100
AcDbVisualStyle
  2
FlatWithEdges
 70
     1
 71
     2
 72
     1
 73
     1
 90
        2
 40
-0.6
 41
30.0
 62
     5
 63
     7
421
 16777215
 74
     1
 91
        0
 64
     7
 65
   257
 75
     1
175
     1
 42
1.0
 92
        0
 66
   257
 43
1.0
 76
     1
 77
     6
 78
     2
 67
     7
 79
     5
170
     0
171
     0
290
     0
174
     0
 93
       13
 44
0.0
173
     0
291
     1
 45
0.0
1001
ACAD
1000
AcDbSavedByObjectVersion
1070
     0
  0
VISUALSTYLE
  5
2C
102
{ACAD_XDICTIONARY
360
84B
102
}
102
{ACAD_REACTORS
330
29
102
}
330
29
100
AcDbVisualStyle
  2
Gouraud
 70
     2
 71
     2
 72
     2
 73
     1
 90
        2
 40
-0.6
 41
30.0
 62
     5
 63
     7
421
 16777215
 74
     0
 91
        0
 64
     7
 65
   257
 75
     1
175
     1
 42
1.0
 92
        0
 66
     7
 43
1.0
 76
     1
 77
     6
 78
     2
 67
     7
 79
     5
170
     0
171
     0
290
     0
174
     0
 93
       13
 44
0.0
173
     0
291
     1
 45
0.0
1001
ACAD
1000
AcDbSavedByObjectVersion
1070
     0
  0
VISUALSTYLE
  5
2D
102
{ACAD_XDICTIONARY
360
84D
102
}
102
{ACAD_REACTORS
330
29
102
}
330
29
100
AcDbVisualStyle
  2
GouraudWithEdges
 70
     3
 71
     2
 72
     2
 73
     1
 90
        2
 40
-0.6
 41
30.0
 62
     5
 63
     7
421
 16777215
 74
     1
 91
        0
 64
     7
 65
   257
 75
     1
175
     1
 42
1.0
 92
        0
 66
   257
 43
1.0
 76
     1
 77
     6
 78
     2
 67
     7
 79
     5
170
     0
171
     0
290
     0
174
     0
 93
       13
 44
0.0
173
     0
291
     1
 45
0.0
1001
ACAD
1000
AcDbSavedByObjectVersion
1070
     0
  0
VISUALSTYLE
  5
31
102
{ACAD_XDICTIONARY
360
855
102
}
102
{ACAD_REACTORS
330
29
102
}
330
29
100
AcDbVisualStyle
  2
Hidden
 70
     6
 71
     1
 72
     2
 73
     2
 90
        0
 40
-0.6
 41
-30.0
 62
     5
 63
     7
421
 16777215
 74
     2
 91
        2
 64
     7
 65
   257
 75
     2
175
     1
 42
40.0
 92
        0
 66
   257
 43
1.0
 76
     1
 77
     6
 78
     2
 67
     7
 79
     3
170
     0
171
     0
290
     0
174
     0
 93
        1
 44
0.0
173
     0
291
     0
 45
0.0
1001
ACAD
1000
AcDbSavedByObjectVersion
1070
     0
  0
VISUALSTYLE
  5
3F
102
{ACAD_XDICTIONARY
360
871
102
}
102
{ACAD_REACTORS
330
29
102
}
330
29
100
AcDbVisualStyle
  2
JitterOff
 70
    20
 71
     2
 72
     2
 73
     0
 90
        0
 40
-0.6
 41
-30.0
 62
     5
 63
     7
421
 16777215
 74
     1
 91
        4
 64
     7
 65
   257
 75
     1
175
     1
 42
1.0
 92
       10
 66
     7
 43
1.0
 76
     1
 77
     6
 78
     2
 67
     7
 79
     5
170
     0
171
     0
290
     0
174
     0
 93
        1
 44
0.0
173
     0
291
     1
 45
0.0
1001
ACAD
1000
AcDbSavedByObjectVersion
1070
     0
  0
VISUALSTYLE
  5
37
102
{ACAD_XDICTIONARY
360
861
102
}
102
{ACAD_REACTORS
330
29
102
}
330
29
100
AcDbVisualStyle
  2
Linepattern
 70
    14
 71
     2
 72
     2
 73
     0
 90
        0
 40
-0.6
 41
-30.0
 62
     5
 63
     7
421
 16777215
 74
     1
 91
        4
 64
     7
 65
   257
 75
     7
175
     7
 42
1.0
 92
        8
 66
     7
 43
1.0
 76
     1
 77
     6
 78
     2
 67
     7
 79
     5
170
     0
171
     0
290
     0
174
     0
 93
        1
 44
0.0
173
     0
291
     1
 45
0.0
1001
ACAD
1000
AcDbSavedByObjectVersion
1070
     0
  0
VISUALSTYLE
  5
40
102
{ACAD_XDICTIONARY
360
873
102
}
102
{ACAD_REACTORS
330
29
102
}
330
29
100
AcDbVisualStyle
  2
OverhangOff
 70
    21
 71
     2
 72
     2
 73
     0
 90
        0
 40
-0.6
 41
-30.0
 62
     5
 63
     7
421
 16777215
 74
     1
 91
        4
 64
     7
 65
   257
 75
     1
175
     1
 42
1.0
 92
        9
 66
     7
 43
1.0
 76
     1
 77
     6
 78
     2
 67
     7
 79
     5
170
     0
171
     0
290
     0
174
     0
 93
        1
 44
0.0
173
     0
291
     1
 45
0.0
1001
ACAD
1000
AcDbSavedByObjectVersion
1070
     0
  0
VISUALSTYLE
  5
33
102
{ACAD_XDICTIONARY
360
859
102
}
102
{ACAD_REACTORS
330
29
102
}
330
29
100
AcDbVisualStyle
  2
Realistic
 70
     8
 71
     2
 72
     3
 73
     0
 90
        2
 40
-0.6
 41
30.0
 62
     5
 63
     7
421
 16777215
 74
     0
 91
        0
 64
     7
 65
   257
 75
     1
175
     1
 42
1.0
 92
        8
 66
   257
 43
1.0
 76
     1
 77
     6
 78
     2
 67
     7
 79
     3
170
     0
171
     0
290
     0
174
     0
 93
       13
 44
0.0
173
     0
291
     0
 45
0.0
1001
ACAD
1000
AcDbSavedByObjectVersion
1070
     0
  0
VISUALSTYLE
  5
3E
102
{ACAD_XDICTIONARY
360
86F
102
}
102
{ACAD_REACTORS
330
29
102
}
330
29
100
AcDbVisualStyle
  2
Shaded
 70
    27
 71
     2
 72
     2
 73
     1
 90
        2
 40
-0.6
 41
30.0
 62
     5
 63
     7
421
 16777215
 74
     0
 91
        4
 64
     7
 65
   257
 75
     1
175
     1
 42
1.0
 92
        8
 66
   257
 43
1.0
 76
     1
 77
     6
 78
     2
 67
     8
425
  7895160
 79
     3
170
     0
171
     0
290
     0
174
     0
 93
        5
 44
0.0
173
     0
291
     0
 45
0.0
1001
ACAD
1000
AcDbSavedByObjectVersion
1070
     0
  0
VISUALSTYLE
  5
3D
102
{ACAD_XDICTIONARY
360
86D
102
}
102
{ACAD_REACTORS
330
29
102
}
330
29
100
AcDbVisualStyle
  2
Shaded with edges
 70
    26
 71
     2
 72
     2
 73
     1
 90
        2
 40
-0.6
 41
30.0
 62
     5
 63
     7
421
 16777215
 74
     1
 91
       10
 64
     7
 65
   257
 75
     2
175
     1
 42
1.0
 92
        8
 66
   257
 43
1.0
 76
     1
 77
     6
 78
     2
 67
     7
 79
     3
170
     0
171
     0
290
     0
174
     0
 93
        5
 44
0.0
173
     0
291
     0
 45
0.0
1001
ACAD
1000
AcDbSavedByObjectVersion
1070
     0
  0
VISUALSTYLE
  5
3A
102
{ACAD_XDICTIONARY
360
867
102
}
102
{ACAD_REACTORS
330
29
102
}
330
29
100
AcDbVisualStyle
  2
Shades of Gray
 70
    23
 71
     2
 72
     2
 73
     3
 90
        0
 40
-0.6
 41
-30.0
 62
     5
 63
     7
421
 16777215
 74
     2
 91
        2
 64
     7
 65
     7
 75
     1
175
     1
 42
40.0
 92
        8
 66
     7
 43
1.0
 76
     1
 77
     6
 78
     2
 67
     7
 79
     3
170
     0
171
     0
290
     0
174
     0
 93
        1
 44
0.0
173
     0
291
     0
 45
0.0
1001
ACAD
1000
AcDbSavedByObjectVersion
1070
     0
  0
VISUALSTYLE
  5
3B
102
{ACAD_XDICTIONARY
360
869
102
}
102
{ACAD_REACTORS
330
29
102
}
330
29
100
AcDbVisualStyle
  2
Sketchy
 70
    24
 71
     1
 72
     2
 73
     2
 90
        0
 40
-0.6
 41
-30.0
 62
     5
 63
     7
421
 16777215
 74
     2
 91
        2
 64
     7
 65
     7
 75
     1
175
     1
 42
40.0
 92
       11
 66
     7
 43
1.0
 76
     1
 77
     6
 78
     2
 67
     7
 79
     6
170
     0
171
     0
290
     0
174
     0
 93
        1
 44
0.0
173
     0
291
     0
 45
0.0
1001
ACAD
1000
AcDbSavedByObjectVersion
1070
     0
  0
VISUALSTYLE
  5
36
102
{ACAD_XDICTIONARY
360
85F
102
}
102
{ACAD_REACTORS
330
29
102
}
330
29
100
AcDbVisualStyle
  2
Thicken
 70
    13
 71
     2
 72
     2
 73
     0
 90
        0
 40
-0.6
 41
-30.0
 62
     5
 63
     7
421
 16777215
 74
     1
 91
        4
 64
     7
 65
   257
 75
     1
175
     1
 42
1.0
 92
       12
 66
     7
 43
1.0
 76
     1
 77
     6
 78
     2
 67
     7
 79
     5
170
     0
171
     0
290
     0
174
     0
 93
        1
 44
0.0
173
     0
291
     1
 45
0.0
1001
ACAD
1000
AcDbSavedByObjectVersion
1070
     0
  0
VISUALSTYLE
  5
30
102
{ACAD_XDICTIONARY
360
853
102
}
102
{ACAD_REACTORS
330
29
102
}
330
29
100
AcDbVisualStyle
  2
Wireframe
 70
     5
 71
     0
 72
     2
 73
     0
 90
        0
 40
-0.6
 41
-30.0
 62
     5
 63
     7
421
 16777215
 74
     1
 91
        4
 64
     7
 65
   257
 75
     1
175
     1
 42
1.0
 92
        0
 66
   257
 43
1.0
 76
     1
 77
     6
 78
     2
 67
     7
 79
     3
170
     0
171
     0
290
     0
174
     0
 93
        1
 44
0.0
173
     0
291
     0
 45
0.0
1001
ACAD
1000
AcDbSavedByObjectVersion
1070
     0
  0
VISUALSTYLE
  5
3C
102
{ACAD_XDICTIONARY
360
86B
102
}
102
{ACAD_REACTORS
330
29
102
}
330
29
100
AcDbVisualStyle
  2
X-Ray
 70
    25
 71
     2
 72
     2
 73
     1
 90
        1
 40
0.5
 41
-30.0
 62
     5
 63
     7
421
 16777215
 74
     1
 91
        0
 64
     7
 65
   257
 75
     1
175
     1
 42
1.0
 92
        8
 66
     7
 43
1.0
 76
     1
 77
     6
 78
     2
 67
     7
 79
     3
170
     0
171
     0
290
     0
174
     0
 93
       13
 44
0.0
173
     0
291
     0
 45
0.0
1001
ACAD
1000
AcDbSavedByObjectVersion
1070
     0
  0
DICTIONARYVAR
  5
835
102
{ACAD_REACTORS
330
831
102
}
330
831
100
DictionaryVariables
280
     0
  1
1:1
  0
DICTIONARYVAR
  5
833
102
{ACAD_REACTORS
330
831
102
}
330
831
100
DictionaryVariables
280
     0
  1
STANDARD
  0
DICTIONARYVAR
  5
832
102
{ACAD_REACTORS
330
831
102
}
330
831
100
DictionaryVariables
280
     0
  1
STANDARD
  0
DICTIONARYVAR
  5
837
102
{ACAD_REACTORS
330
831
102
}
330
831
100
DictionaryVariables
280
     0
  1
0
  0
DICTIONARYVAR
  5
838
102
{ACAD_REACTORS
330
831
102
}
330
831
100
DictionaryVariables
280
     0
  1
0
  0
DICTIONARYVAR
  5
836
102
{ACAD_REACTORS
330
831
102
}
330
831
100
DictionaryVariables
280
     0
  1
2
  0
DICTIONARYVAR
  5
834
102
{ACAD_REACTORS
330
831
102
}
330
831
100
DictionaryVariables
280
     0
  1
1
  0
DICTIONARYVAR
  5
839
102
{ACAD_REACTORS
330
831
102
}
330
831
100
DictionaryVariables
280
     0
  1
2
  0
DICTIONARY
  5
A6
102
{ACAD_REACTORS
330
A4
102
}
330
A4
100
AcDbDictionary
281
     1
  0
DICTIONARY
  5
1A
330
19
100
AcDbDictionary
280
     1
281
     1
  3
ACAD_XREC_ROUNDTRIP
360
845
  3
BUMPTILE
360
1C
  3
DIFFUSETILE
360
1B
  3
OPACITYTILE
360
1F
  3
REFLECTIONTILE
360
1E
  3
REFRACTIONTILE
360
20
  3
SPECULARTILE
360
1D
  0
DICTIONARY
  5
12
330
11
100
AcDbDictionary
280
     1
281
     1
  3
ACAD_XREC_ROUNDTRIP
360
844
  3
BUMPTILE
360
14
  3
DIFFUSETILE
360
13
  3
OPACITYTILE
360
17
  3
REFLECTIONTILE
360
16
  3
REFRACTIONTILE
360
18
  3
SPECULARTILE
360
15
  0
DICTIONARY
  5
22
330
21
100
AcDbDictionary
280
     1
281
     1
  3
ACAD_XREC_ROUNDTRIP
360
846
  3
BUMPTILE
360
24
  3
DIFFUSETILE
360
23
  3
OPACITYTILE
360
27
  3
REFLECTIONTILE
360
26
  3
REFRACTIONTILE
360
28
  3
SPECULARTILE
360
25
  0
DICTIONARY
  5
83C
330
67
100
AcDbDictionary
280
     1
281
     1
  3
ACAD_XREC_ROUNDTRIP
360
83D
  0
DICTIONARY
  5
83A
330
65
100
AcDbDictionary
280
     1
281
     1
  3
ACAD_ROUNDTRIP_2008_TABLESTYLE_CELLSTYLEMAP
360
83B
  3
ACAD_XREC_ROUNDTRIP
360
878
  0
DICTIONARY
  5
851
330
2F
100
AcDbDictionary
280
     1
281
     1
  3
ACAD_XREC_ROUNDTRIP
360
852
  0
DICTIONARY
  5
87E
330
FB
100
AcDbDictionary
280
     1
281
     1
  3
ACAD_XREC_ROUNDTRIP
360
87F
  0
DICTIONARY
  5
84F
330
2E
100
AcDbDictionary
280
     1
281
     1
  3
ACAD_XREC_ROUNDTRIP
360
850
  0
DICTIONARY
  5
85D
330
35
100
AcDbDictionary
280
     1
281
     1
  3
ACAD_XREC_ROUNDTRIP
360
85E
  0
DICTIONARY
  5
865
330
39
100
AcDbDictionary
280
     1
281
     1
  3
ACAD_XREC_ROUNDTRIP
360
866
  0
DICTIONARY
  5
857
330
32
100
AcDbDictionary
280
     1
281
     1
  3
ACAD_XREC_ROUNDTRIP
360
858
  0
DICTIONARY
  5
85B
330
34
100
AcDbDictionary
280
     1
281
     1
  3
ACAD_XREC_ROUNDTRIP
360
85C
  0
DICTIONARY
  5
875
330
41
100
AcDbDictionary
280
     1
281
     1
  3
ACAD_XREC_ROUNDTRIP
360
876
  0
DICTIONARY
  5
863
330
38
100
AcDbDictionary
280
     1
281
     1
  3
ACAD_XREC_ROUNDTRIP
360
864
  0
DICTIONARY
  5
847
330
2A
100
AcDbDictionary
280
     1
281
     1
  3
ACAD_XREC_ROUNDTRIP
360
848
  0
DICTIONARY
  5
849
330
2B
100
AcDbDictionary
280
     1
281
     1
  3
ACAD_XREC_ROUNDTRIP
360
84A
  0
DICTIONARY
  5
84B
330
2C
100
AcDbDictionary
280
     1
281
     1
  3
ACAD_XREC_ROUNDTRIP
360
84C
  0
DICTIONARY
  5
84D
330
2D
100
AcDbDictionary
280
     1
281
     1
  3
ACAD_XREC_ROUNDTRIP
360
84E
  0
DICTIONARY
  5
855
330
31
100
AcDbDictionary
280
     1
281
     1
  3
ACAD_XREC_ROUNDTRIP
360
856
  0
DICTIONARY
  5
871
330
3F
100
AcDbDictionary
280
     1
281
     1
  3
ACAD_XREC_ROUNDTRIP
360
872
  0
DICTIONARY
  5
861
330
37
100
AcDbDictionary
280
     1
281
     1
  3
ACAD_XREC_ROUNDTRIP
360
862
  0
DICTIONARY
  5
873
330
40
100
AcDbDictionary
280
     1
281
     1
  3
ACAD_XREC_ROUNDTRIP
360
874
  0
DICTIONARY
  5
859
330
33
100
AcDbDictionary
280
     1
281
     1
  3
ACAD_XREC_ROUNDTRIP
360
85A
  0
DICTIONARY
  5
86F
330
3E
100
AcDbDictionary
280
     1
281
     1
  3
ACAD_XREC_ROUNDTRIP
360
870
  0
DICTIONARY
  5
86D
330
3D
100
AcDbDictionary
280
     1
281
     1
  3
ACAD_XREC_ROUNDTRIP
360
86E
  0
DICTIONARY
  5
867
330
3A
100
AcDbDictionary
280
     1
281
     1
  3
ACAD_XREC_ROUNDTRIP
360
868
  0
DICTIONARY
  5
869
330
3B
100
AcDbDictionary
280
     1
281
     1
  3
ACAD_XREC_ROUNDTRIP
360
86A
  0
DICTIONARY
  5
85F
330
36
100
AcDbDictionary
280
     1
281
     1
  3
ACAD_XREC_ROUNDTRIP
360
860
  0
DICTIONARY
  5
853
330
30
100
AcDbDictionary
280
     1
281
     1
  3
ACAD_XREC_ROUNDTRIP
360
854
  0
DICTIONARY
  5
86B
330
3C
100
AcDbDictionary
280
     1
281
     1
  3
ACAD_XREC_ROUNDTRIP
360
86C
  0
XRECORD
  5
845
102
{ACAD_REACTORS
330
1A
102
}
330
1A
100
AcDbXrecord
280
     1
102
MATERIAL
148
0.0
149
0.0
149
0.0
 93
        0
 94
      127
282
     0
 72
     0
 77
     0
171
     0
175
     0
179
     0
273
     0
  0
XRECORD
  5
1C
102
{ACAD_REACTORS
330
1A
102
}
330
1A
100
AcDbXrecord
280
     1
270
     1
271
     1
  0
XRECORD
  5
1B
102
{ACAD_REACTORS
330
1A
102
}
330
1A
100
AcDbXrecord
280
     1
270
     1
271
     1
  0
XRECORD
  5
1F
102
{ACAD_REACTORS
330
1A
102
}
330
1A
100
AcDbXrecord
280
     1
270
     1
271
     1
  0
XRECORD
  5
1E
102
{ACAD_REACTORS
330
1A
102
}
330
1A
100
AcDbXrecord
280
     1
270
     1
271
     1
  0
XRECORD
  5
20
102
{ACAD_REACTORS
330
1A
102
}
330
1A
100
AcDbXrecord
280
     1
270
     1
271
     1
  0
XRECORD
  5
1D
102
{ACAD_REACTORS
330
1A
102
}
330
1A
100
AcDbXrecord
280
     1
270
     1
271
     1
  0
XRECORD
  5
844
102
{ACAD_REACTORS
330
12
102
}
330
12
100
AcDbXrecord
280
     1
102
MATERIAL
148
0.0
149
0.0
149
0.0
 93
        0
 94
      127
282
     0
 72
     0
 77
     0
171
     0
175
     0
179
     0
273
     0
  0
XRECORD
  5
14
102
{ACAD_REACTORS
330
12
102
}
330
12
100
AcDbXrecord
280
     1
270
     1
271
     1
  0
XRECORD
  5
13
102
{ACAD_REACTORS
330
12
102
}
330
12
100
AcDbXrecord
280
     1
270
     1
271
     1
  0
XRECORD
  5
17
102
{ACAD_REACTORS
330
12
102
}
330
12
100
AcDbXrecord
280
     1
270
     1
271
     1
  0
XRECORD
  5
16
102
{ACAD_REACTORS
330
12
102
}
330
12
100
AcDbXrecord
280
     1
270
     1
271
     1
  0
XRECORD
  5
18
102
{ACAD_REACTORS
330
12
102
}
330
12
100
AcDbXrecord
280
     1
270
     1
271
     1
  0
XRECORD
  5
15
102
{ACAD_REACTORS
330
12
102
}
330
12
100
AcDbXrecord
280
     1
270
     1
271
     1
  0
XRECORD
  5
846
102
{ACAD_REACTORS
330
22
102
}
330
22
100
AcDbXrecord
280
     1
102
MATERIAL
148
0.0
149
0.0
149
0.0
 93
        0
 94
      127
282
     0
 72
     0
 77
     0
171
     0
175
     0
179
     0
273
     0
  0
XRECORD
  5
24
102
{ACAD_REACTORS
330
22
102
}
330
22
100
AcDbXrecord
280
     1
270
     1
271
     1
  0
XRECORD
  5
23
102
{ACAD_REACTORS
330
22
102
}
330
22
100
AcDbXrecord
280
     1
270
     1
271
     1
  0
XRECORD
  5
27
102
{ACAD_REACTORS
330
22
102
}
330
22
100
AcDbXrecord
280
     1
270
     1
271
     1
  0
XRECORD
  5
26
102
{ACAD_REACTORS
330
22
102
}
330
22
100
AcDbXrecord
280
     1
270
     1
271
     1
  0
XRECORD
  5
28
102
{ACAD_REACTORS
330
22
102
}
330
22
100
AcDbXrecord
280
     1
270
     1
271
     1
  0
XRECORD
  5
25
102
{ACAD_REACTORS
330
22
102
}
330
22
100
AcDbXrecord
280
     1
270
     1
271
     1
  0
XRECORD
  5
83D
102
{ACAD_REACTORS
330
83C
102
}
330
83C
100
AcDbXrecord
280
     1
102
ACAD_ROUNDTRIP_2012_MLEADER_STYLE
298
     1
  0
CELLSTYLEMAP
  5
83B
102
{ACAD_REACTORS
330
83A
102
}
330
83A
100
AcDbCellStyleMap
 90
        3
300
CELLSTYLE
  1
TABLEFORMAT_BEGIN
 90
        5
170
     1
 91
        0
 92
    32768
 62
   257
 93
        1
300
CONTENTFORMAT
  1
CONTENTFORMAT_BEGIN
 90
        0
 91
        0
 92
      512
 93
        0
300

 40
0.0
140
1.0
 94
        5
 62
     0
340
55
144
6.0
309
CONTENTFORMAT_END
171
     1
301
MARGIN
  1
CELLMARGIN_BEGIN
 40
1.5
 40
1.5
 40
1.5
 40
1.5
 40
4.5
 40
4.5
309
CELLMARGIN_END
 94
        6
 95
        1
302
GRIDFORMAT
  1
GRIDFORMAT_BEGIN
 90
        0
 91
        1
 62
     0
 92
       -2
340
0
 93
        0
 40
1.125
309
GRIDFORMAT_END
 95
        2
302
GRIDFORMAT
  1
GRIDFORMAT_BEGIN
 90
        0
 91
        1
 62
     0
 92
       -2
340
0
 93
        0
 40
1.125
309
GRIDFORMAT_END
 95
        4
302
GRIDFORMAT
  1
GRIDFORMAT_BEGIN
 90
        0
 91
        1
 62
     0
 92
       -2
340
0
 93
        0
 40
1.125
309
GRIDFORMAT_END
 95
        8
302
GRIDFORMAT
  1
GRIDFORMAT_BEGIN
 90
        0
 91
        1
 62
     0
 92
       -2
340
0
 93
        0
 40
1.125
309
GRIDFORMAT_END
 95
       16
302
GRIDFORMAT
  1
GRIDFORMAT_BEGIN
 90
        0
 91
        1
 62
     0
 92
       -2
340
0
 93
        0
 40
1.125
309
GRIDFORMAT_END
 95
       32
302
GRIDFORMAT
  1
GRIDFORMAT_BEGIN
 90
        0
 91
        1
 62
     0
 92
       -2
340
0
 93
        0
 40
1.125
309
GRIDFORMAT_END
309
TABLEFORMAT_END
  1
CELLSTYLE_BEGIN
 90
        1
 91
        1
300
_TITLE
309
CELLSTYLE_END
300
CELLSTYLE
  1
TABLEFORMAT_BEGIN
 90
        5
170
     1
 91
        0
 92
        0
 62
   257
 93
        1
300
CONTENTFORMAT
  1
CONTENTFORMAT_BEGIN
 90
        0
 91
        0
 92
      512
 93
        0
300

 40
0.0
140
1.0
 94
        5
 62
     0
340
55
144
4.5
309
CONTENTFORMAT_END
171
     1
301
MARGIN
  1
CELLMARGIN_BEGIN
 40
1.5
 40
1.5
 40
1.5
 40
1.5
 40
4.5
 40
4.5
309
CELLMARGIN_END
 94
        6
 95
        1
302
GRIDFORMAT
  1
GRIDFORMAT_BEGIN
 90
        0
 91
        1
 62
     0
 92
       -2
340
0
 93
        0
 40
1.125
309
GRIDFORMAT_END
 95
        2
302
GRIDFORMAT
  1
GRIDFORMAT_BEGIN
 90
        0
 91
        1
 62
     0
 92
       -2
340
0
 93
        0
 40
1.125
309
GRIDFORMAT_END
 95
        4
302
GRIDFORMAT
  1
GRIDFORMAT_BEGIN
 90
        0
 91
        1
 62
     0
 92
       -2
340
0
 93
        0
 40
1.125
309
GRIDFORMAT_END
 95
        8
302
GRIDFORMAT
  1
GRIDFORMAT_BEGIN
 90
        0
 91
        1
 62
     0
 92
       -2
340
0
 93
        0
 40
1.125
309
GRIDFORMAT_END
 95
       16
302
GRIDFORMAT
  1
GRIDFORMAT_BEGIN
 90
        0
 91
        1
 62
     0
 92
       -2
340
0
 93
        0
 40
1.125
309
GRIDFORMAT_END
 95
       32
302
GRIDFORMAT
  1
GRIDFORMAT_BEGIN
 90
        0
 91
        1
 62
     0
 92
       -2
340
0
 93
        0
 40
1.125
309
GRIDFORMAT_END
309
TABLEFORMAT_END
  1
CELLSTYLE_BEGIN
 90
        2
 91
        1
300
_HEADER
309
CELLSTYLE_END
300
CELLSTYLE
  1
TABLEFORMAT_BEGIN
 90
        5
170
     1
 91
        0
 92
        0
 62
   257
 93
        1
300
CONTENTFORMAT
  1
CONTENTFORMAT_BEGIN
 90
        0
 91
        0
 92
      512
 93
        0
300

 40
0.0
140
1.0
 94
        2
 62
     0
340
55
144
4.5
309
CONTENTFORMAT_END
171
     1
301
MARGIN
  1
CELLMARGIN_BEGIN
 40
1.5
 40
1.5
 40
1.5
 40
1.5
 40
4.5
 40
4.5
309
CELLMARGIN_END
 94
        6
 95
        1
302
GRIDFORMAT
  1
GRIDFORMAT_BEGIN
 90
        0
 91
        1
 62
     0
 92
       -2
340
0
 93
        0
 40
1.125
309
GRIDFORMAT_END
 95
        2
302
GRIDFORMAT
  1
GRIDFORMAT_BEGIN
 90
        0
 91
        1
 62
     0
 92
       -2
340
0
 93
        0
 40
1.125
309
GRIDFORMAT_END
 95
        4
302
GRIDFORMAT
  1
GRIDFORMAT_BEGIN
 90
        0
 91
        1
 62
     0
 92
       -2
340
0
 93
        0
 40
1.125
309
GRIDFORMAT_END
 95
        8
302
GRIDFORMAT
  1
GRIDFORMAT_BEGIN
 90
        0
 91
        1
 62
     0
 92
       -2
340
0
 93
        0
 40
1.125
309
GRIDFORMAT_END
 95
       16
302
GRIDFORMAT
  1
GRIDFORMAT_BEGIN
 90
        0
 91
        1
 62
     0
 92
       -2
340
0
 93
        0
 40
1.125
309
GRIDFORMAT_END
 95
       32
302
GRIDFORMAT
  1
GRIDFORMAT_BEGIN
 90
        0
 91
        1
 62
     0
 92
       -2
340
0
 93
        0
 40
1.125
309
GRIDFORMAT_END
309
TABLEFORMAT_END
  1
CELLSTYLE_BEGIN
 90
        3
 91
        2
300
_DATA
309
CELLSTYLE_END
  0
XRECORD
  5
878
102
{ACAD_REACTORS
330
83A
102
}
330
83A
100
AcDbXrecord
280
     1
102
ACAD_ROUNDTRIP_PRE2007_TABLESTYLE
 90
      512
 91
        0
  1

 92
      512
 93
        0
  2

 94
      512
 95
        0
  3

  0
XRECORD
  5
852
102
{ACAD_REACTORS
330
851
102
}
330
851
100
AcDbXrecord
280
     1
102
RTVSPropertyOp0
 70
     1
102
RTVSPropertyOp1
 70
     1
102
RTVSPropertyOp2
 70
     1
102
RTVSPropertyOp3
 70
     1
102
RTVSPropertyOp4
 70
     1
102
RTVSPropertyOp5
 70
     1
102
RTVSPropertyOp6
 70
     1
102
RTVSPropertyOp7
 70
     1
102
RTVSPropertyOp8
 70
     1
102
RTVSPropertyOp9
 70
     1
102
RTVSPropertyOp10
 70
     1
102
RTVSPropertyOp11
 70
     1
102
RTVSPropertyOp12
 70
     1
102
RTVSPropertyOp13
 70
     1
102
RTVSPropertyOp14
 70
     1
102
RTVSPropertyOp15
 70
     1
102
RTVSPropertyOp16
 70
     1
102
RTVSPropertyOp17
 70
     1
102
RTVSPropertyOp18
 70
     1
102
RTVSPropertyOp19
 70
     1
102
RTVSPropertyOp20
 70
     1
102
RTVSPropertyOp21
 70
     1
102
RTVSPropertyOp22
 70
     1
102
RTVSPropertyOp23
 70
     1
102
RTVSPropertyOp24
 70
     1
102
RTVSPropertyOp25
 70
     1
102
RTVSPropertyOp26
 70
     1
102
RTVSPropertyOp27
 70
     1
102
RTVSPropertyOp28
 70
     1
102
RTVSPropertyOp29
 70
     1
102
RTVSPropertyOp30
 70
     1
102
RTVSPropertyOp31
 70
     1
102
RTVSPropertyOp32
 70
     1
  0
XRECORD
  5
87F
102
{ACAD_REACTORS
330
87E
102
}
330
87E
100
AcDbXrecord
280
     1
102
RTVSPropertyOp0
 70
     1
102
RTVSPropertyOp1
 70
     1
102
RTVSPropertyOp2
 70
     1
102
RTVSPropertyOp3
 70
     1
102
RTVSPropertyOp4
 70
     1
102
RTVSPropertyOp5
 70
     1
102
RTVSPropertyOp6
 70
     1
102
RTVSPropertyOp7
 70
     1
102
RTVSPropertyOp8
 70
     1
102
RTVSPropertyOp9
 70
     1
102
RTVSPropertyOp10
 70
     1
102
RTVSPropertyOp11
 70
     1
102
RTVSPropertyOp12
 70
     1
102
RTVSPropertyOp13
 70
     1
102
RTVSPropertyOp14
 70
     1
102
RTVSPropertyOp15
 70
     1
102
RTVSPropertyOp16
 70
     1
102
RTVSPropertyOp17
 70
     1
102
RTVSPropertyOp18
 70
     1
102
RTVSPropertyOp19
 70
     1
102
RTVSPropertyOp20
 70
     1
102
RTVSPropertyOp21
 70
     1
102
RTVSPropertyOp22
 70
     1
102
RTVSPropertyOp23
 70
     1
102
RTVSPropertyOp24
 70
     1
102
RTVSPropertyOp25
 70
     1
102
RTVSPropertyOp26
 70
     1
102
RTVSPropertyOp27
 70
     1
102
RTVSPropertyOp28
 70
     1
102
RTVSPropertyOp29
 70
     1
102
RTVSPropertyOp30
 70
     1
102
RTVSPropertyOp31
 70
     1
102
RTVSPropertyOp32
 70
     1
  0
XRECORD
  5
850
102
{ACAD_REACTORS
330
84F
102
}
330
84F
100
AcDbXrecord
280
     1
102
RTVSPropertyOp0
 70
     1
102
RTVSPropertyOp1
 70
     1
102
RTVSPropertyOp2
 70
     1
102
RTVSPropertyOp3
 70
     1
102
RTVSPropertyOp4
 70
     1
102
RTVSPropertyOp5
 70
     1
102
RTVSPropertyOp6
 70
     1
102
RTVSPropertyOp7
 70
     1
102
RTVSPropertyOp8
 70
     1
102
RTVSPropertyOp9
 70
     1
102
RTVSPropertyOp10
 70
     1
102
RTVSPropertyOp11
 70
     1
102
RTVSPropertyOp12
 70
     1
102
RTVSPropertyOp13
 70
     1
102
RTVSPropertyOp14
 70
     1
102
RTVSPropertyOp15
 70
     1
102
RTVSPropertyOp16
 70
     1
102
RTVSPropertyOp17
 70
     1
102
RTVSPropertyOp18
 70
     1
102
RTVSPropertyOp19
 70
     1
102
RTVSPropertyOp20
 70
     1
102
RTVSPropertyOp21
 70
     1
102
RTVSPropertyOp22
 70
     1
102
RTVSPropertyOp23
 70
     1
102
RTVSPropertyOp24
 70
     1
102
RTVSPropertyOp25
 70
     1
102
RTVSPropertyOp26
 70
     1
102
RTVSPropertyOp27
 70
     1
102
RTVSPropertyOp28
 70
     1
102
RTVSPropertyOp29
 70
     1
102
RTVSPropertyOp30
 70
     1
102
RTVSPropertyOp31
 70
     1
102
RTVSPropertyOp32
 70
     1
  0
XRECORD
  5
85E
102
{ACAD_REACTORS
330
85D
102
}
330
85D
100
AcDbXrecord
280
     1
102
RTVSPropertyOp0
 70
     1
102
RTVSPropertyOp1
 70
     1
102
RTVSPropertyOp2
 70
     1
102
RTVSPropertyOp3
 70
     1
102
RTVSPropertyOp4
 70
     1
102
RTVSPropertyOp5
 70
     1
102
RTVSPropertyOp6
 70
     1
102
RTVSPropertyOp7
 70
     1
102
RTVSPropertyOp8
 70
     1
102
RTVSPropertyOp9
 70
     1
102
RTVSPropertyOp10
 70
     1
102
RTVSPropertyOp11
 70
     1
102
RTVSPropertyOp12
 70
     1
102
RTVSPropertyOp13
 70
     1
102
RTVSPropertyOp14
 70
     1
102
RTVSPropertyOp15
 70
     1
102
RTVSPropertyOp16
 70
     1
102
RTVSPropertyOp17
 70
     1
102
RTVSPropertyOp18
 70
     1
102
RTVSPropertyOp19
 70
     1
102
RTVSPropertyOp20
 70
     1
102
RTVSPropertyOp21
 70
     1
102
RTVSPropertyOp22
 70
     1
102
RTVSPropertyOp23
 70
     1
102
RTVSPropertyOp24
 70
     1
102
RTVSPropertyOp25
 70
     1
102
RTVSPropertyOp26
 70
     1
102
RTVSPropertyOp27
 70
     1
102
RTVSPropertyOp28
 70
     1
102
RTVSPropertyOp29
 70
     1
102
RTVSPropertyOp30
 70
     1
102
RTVSPropertyOp31
 70
     1
102
RTVSPropertyOp32
 70
     1
  0
XRECORD
  5
866
102
{ACAD_REACTORS
330
865
102
}
330
865
100
AcDbXrecord
280
     1
102
RTVSPropertyOp0
 70
     1
102
RTVSPropertyOp1
 70
     1
102
RTVSPropertyOp2
 70
     1
102
RTVSPropertyOp3
 70
     1
102
RTVSPropertyOp4
 70
     1
102
RTVSPropertyOp5
 70
     1
102
RTVSPropertyOp6
 70
     1
102
RTVSPropertyOp7
 70
     1
102
RTVSPropertyOp8
 70
     1
102
RTVSPropertyOp9
 70
     1
102
RTVSPropertyOp10
 70
     1
102
RTVSPropertyOp11
 70
     1
102
RTVSPropertyOp12
 70
     1
102
RTVSPropertyOp13
 70
     1
102
RTVSPropertyOp14
 70
     1
102
RTVSPropertyOp15
 70
     1
102
RTVSPropertyOp16
 70
     1
102
RTVSPropertyOp17
 70
     1
102
RTVSPropertyOp18
 70
     1
102
RTVSPropertyOp19
 70
     1
102
RTVSPropertyOp20
 70
     1
102
RTVSPropertyOp21
 70
     1
102
RTVSPropertyOp22
 70
     1
102
RTVSPropertyOp23
 70
     1
102
RTVSPropertyOp24
 70
     1
102
RTVSPropertyOp25
 70
     1
102
RTVSPropertyOp26
 70
     1
102
RTVSPropertyOp27
 70
     1
102
RTVSPropertyOp28
 70
     1
102
RTVSPropertyOp29
 70
     1
102
RTVSPropertyOp30
 70
     1
102
RTVSPropertyOp31
 70
     1
102
RTVSPropertyOp32
 70
     1
  0
XRECORD
  5
858
102
{ACAD_REACTORS
330
857
102
}
330
857
100
AcDbXrecord
280
     1
102
RTVSPropertyOp0
 70
     1
102
RTVSPropertyOp1
 70
     1
102
RTVSPropertyOp2
 70
     1
102
RTVSPropertyOp3
 70
     1
102
RTVSPropertyOp4
 70
     1
102
RTVSPropertyOp5
 70
     1
102
RTVSPropertyOp6
 70
     1
102
RTVSPropertyOp7
 70
     1
102
RTVSPropertyOp8
 70
     1
102
RTVSPropertyOp9
 70
     1
102
RTVSPropertyOp10
 70
     1
102
RTVSPropertyOp11
 70
     1
102
RTVSPropertyOp12
 70
     1
102
RTVSPropertyOp13
 70
     1
102
RTVSPropertyOp14
 70
     1
102
RTVSPropertyOp15
 70
     1
102
RTVSPropertyOp16
 70
     1
102
RTVSPropertyOp17
 70
     1
102
RTVSPropertyOp18
 70
     1
102
RTVSPropertyOp19
 70
     1
102
RTVSPropertyOp20
 70
     1
102
RTVSPropertyOp21
 70
     1
102
RTVSPropertyOp22
 70
     1
102
RTVSPropertyOp23
 70
     1
102
RTVSPropertyOp24
 70
     1
102
RTVSPropertyOp25
 70
     1
102
RTVSPropertyOp26
 70
     1
102
RTVSPropertyOp27
 70
     1
102
RTVSPropertyOp28
 70
     1
102
RTVSPropertyOp29
 70
     1
102
RTVSPropertyOp30
 70
     1
102
RTVSPropertyOp31
 70
     1
102
RTVSPropertyOp32
 70
     1
  0
XRECORD
  5
85C
102
{ACAD_REACTORS
330
85B
102
}
330
85B
100
AcDbXrecord
280
     1
102
RTVSPropertyOp0
 70
     1
102
RTVSPropertyOp1
 70
     1
102
RTVSPropertyOp2
 70
     1
102
RTVSPropertyOp3
 70
     1
102
RTVSPropertyOp4
 70
     1
102
RTVSPropertyOp5
 70
     1
102
RTVSPropertyOp6
 70
     1
102
RTVSPropertyOp7
 70
     1
102
RTVSPropertyOp8
 70
     1
102
RTVSPropertyOp9
 70
     1
102
RTVSPropertyOp10
 70
     1
102
RTVSPropertyOp11
 70
     1
102
RTVSPropertyOp12
 70
     1
102
RTVSPropertyOp13
 70
     1
102
RTVSPropertyOp14
 70
     1
102
RTVSPropertyOp15
 70
     1
102
RTVSPropertyOp16
 70
     1
102
RTVSPropertyOp17
 70
     1
102
RTVSPropertyOp18
 70
     1
102
RTVSPropertyOp19
 70
     1
102
RTVSPropertyOp20
 70
     1
102
RTVSPropertyOp21
 70
     1
102
RTVSPropertyOp22
 70
     1
102
RTVSPropertyOp23
 70
     1
102
RTVSPropertyOp24
 70
     1
102
RTVSPropertyOp25
 70
     1
102
RTVSPropertyOp26
 70
     1
102
RTVSPropertyOp27
 70
     1
102
RTVSPropertyOp28
 70
     1
102
RTVSPropertyOp29
 70
     1
102
RTVSPropertyOp30
 70
     1
102
RTVSPropertyOp31
 70
     1
102
RTVSPropertyOp32
 70
     1
  0
XRECORD
  5
876
102
{ACAD_REACTORS
330
875
102
}
330
875
100
AcDbXrecord
280
     1
102
RTVSPropertyOp0
 70
     0
102
RTVSPropertyOp1
 70
     0
102
RTVSPropertyOp2
 70
     0
102
RTVSPropertyOp3
 70
     0
102
RTVSPropertyOp4
 70
     0
102
RTVSPropertyOp5
 70
     0
102
RTVSPropertyOp6
 70
     0
102
RTVSPropertyOp7
 70
     0
102
RTVSPropertyOp8
 70
     0
102
RTVSPropertyOp9
 70
     0
102
RTVSPropertyOp10
 70
     0
102
RTVSPropertyOp11
 70
     0
102
RTVSPropertyOp12
 70
     0
102
RTVSPropertyOp13
 70
     0
102
RTVSPropertyOp14
 70
     2
102
RTVSPropertyOp15
 70
     0
102
RTVSPropertyOp16
 70
     0
102
RTVSPropertyOp17
 70
     0
102
RTVSPropertyOp18
 70
     0
102
RTVSPropertyOp19
 70
     0
102
RTVSPropertyOp20
 70
     0
102
RTVSPropertyOp21
 70
     0
102
RTVSPropertyOp22
 70
     0
102
RTVSPropertyOp23
 70
     0
102
RTVSPropertyOp24
 70
     0
102
RTVSPropertyOp25
 70
     0
102
RTVSPropertyOp26
 70
     0
102
RTVSPropertyOp27
 70
     0
102
RTVSPropertyOp28
 70
     0
102
RTVSPropertyOp29
 70
     0
102
RTVSPropertyOp30
 70
     0
102
RTVSPropertyOp31
 70
     0
102
RTVSPropertyOp32
 70
     0
  0
XRECORD
  5
864
102
{ACAD_REACTORS
330
863
102
}
330
863
100
AcDbXrecord
280
     1
102
RTVSPropertyOp0
 70
     1
102
RTVSPropertyOp1
 70
     1
102
RTVSPropertyOp2
 70
     1
102
RTVSPropertyOp3
 70
     1
102
RTVSPropertyOp4
 70
     1
102
RTVSPropertyOp5
 70
     1
102
RTVSPropertyOp6
 70
     1
102
RTVSPropertyOp7
 70
     1
102
RTVSPropertyOp8
 70
     1
102
RTVSPropertyOp9
 70
     1
102
RTVSPropertyOp10
 70
     1
102
RTVSPropertyOp11
 70
     1
102
RTVSPropertyOp12
 70
     1
102
RTVSPropertyOp13
 70
     1
102
RTVSPropertyOp14
 70
     1
102
RTVSPropertyOp15
 70
     1
102
RTVSPropertyOp16
 70
     1
102
RTVSPropertyOp17
 70
     1
102
RTVSPropertyOp18
 70
     1
102
RTVSPropertyOp19
 70
     1
102
RTVSPropertyOp20
 70
     1
102
RTVSPropertyOp21
 70
     1
102
RTVSPropertyOp22
 70
     1
102
RTVSPropertyOp23
 70
     1
102
RTVSPropertyOp24
 70
     1
102
RTVSPropertyOp25
 70
     1
102
RTVSPropertyOp26
 70
     1
102
RTVSPropertyOp27
 70
     1
102
RTVSPropertyOp28
 70
     1
102
RTVSPropertyOp29
 70
     1
102
RTVSPropertyOp30
 70
     1
102
RTVSPropertyOp31
 70
     1
102
RTVSPropertyOp32
 70
     1
  0
XRECORD
  5
848
102
{ACAD_REACTORS
330
847
102
}
330
847
100
AcDbXrecord
280
     1
102
RTVSPropertyOp0
 70
     1
102
RTVSPropertyOp1
 70
     1
102
RTVSPropertyOp2
 70
     1
102
RTVSPropertyOp3
 70
     1
102
RTVSPropertyOp4
 70
     1
102
RTVSPropertyOp5
 70
     1
102
RTVSPropertyOp6
 70
     1
102
RTVSPropertyOp7
 70
     1
102
RTVSPropertyOp8
 70
     1
102
RTVSPropertyOp9
 70
     1
102
RTVSPropertyOp10
 70
     1
102
RTVSPropertyOp11
 70
     1
102
RTVSPropertyOp12
 70
     1
102
RTVSPropertyOp13
 70
     1
102
RTVSPropertyOp14
 70
     1
102
RTVSPropertyOp15
 70
     1
102
RTVSPropertyOp16
 70
     1
102
RTVSPropertyOp17
 70
     1
102
RTVSPropertyOp18
 70
     1
102
RTVSPropertyOp19
 70
     1
102
RTVSPropertyOp20
 70
     1
102
RTVSPropertyOp21
 70
     1
102
RTVSPropertyOp22
 70
     1
102
RTVSPropertyOp23
 70
     1
102
RTVSPropertyOp24
 70
     1
102
RTVSPropertyOp25
 70
     1
102
RTVSPropertyOp26
 70
     1
102
RTVSPropertyOp27
 70
     1
102
RTVSPropertyOp28
 70
     1
102
RTVSPropertyOp29
 70
     1
102
RTVSPropertyOp30
 70
     1
102
RTVSPropertyOp31
 70
     1
102
RTVSPropertyOp32
 70
     1
  0
XRECORD
  5
84A
102
{ACAD_REACTORS
330
849
102
}
330
849
100
AcDbXrecord
280
     1
102
RTVSPropertyOp0
 70
     1
102
RTVSPropertyOp1
 70
     1
102
RTVSPropertyOp2
 70
     1
102
RTVSPropertyOp3
 70
     1
102
RTVSPropertyOp4
 70
     1
102
RTVSPropertyOp5
 70
     1
102
RTVSPropertyOp6
 70
     1
102
RTVSPropertyOp7
 70
     1
102
RTVSPropertyOp8
 70
     1
102
RTVSPropertyOp9
 70
     1
102
RTVSPropertyOp10
 70
     1
102
RTVSPropertyOp11
 70
     1
102
RTVSPropertyOp12
 70
     1
102
RTVSPropertyOp13
 70
     1
102
RTVSPropertyOp14
 70
     1
102
RTVSPropertyOp15
 70
     1
102
RTVSPropertyOp16
 70
     1
102
RTVSPropertyOp17
 70
     1
102
RTVSPropertyOp18
 70
     1
102
RTVSPropertyOp19
 70
     1
102
RTVSPropertyOp20
 70
     1
102
RTVSPropertyOp21
 70
     1
102
RTVSPropertyOp22
 70
     1
102
RTVSPropertyOp23
 70
     1
102
RTVSPropertyOp24
 70
     1
102
RTVSPropertyOp25
 70
     1
102
RTVSPropertyOp26
 70
     1
102
RTVSPropertyOp27
 70
     1
102
RTVSPropertyOp28
 70
     1
102
RTVSPropertyOp29
 70
     1
102
RTVSPropertyOp30
 70
     1
102
RTVSPropertyOp31
 70
     1
102
RTVSPropertyOp32
 70
     1
  0
XRECORD
  5
84C
102
{ACAD_REACTORS
330
84B
102
}
330
84B
100
AcDbXrecord
280
     1
102
RTVSPropertyOp0
 70
     1
102
RTVSPropertyOp1
 70
     1
102
RTVSPropertyOp2
 70
     1
102
RTVSPropertyOp3
 70
     1
102
RTVSPropertyOp4
 70
     1
102
RTVSPropertyOp5
 70
     1
102
RTVSPropertyOp6
 70
     1
102
RTVSPropertyOp7
 70
     1
102
RTVSPropertyOp8
 70
     1
102
RTVSPropertyOp9
 70
     1
102
RTVSPropertyOp10
 70
     1
102
RTVSPropertyOp11
 70
     1
102
RTVSPropertyOp12
 70
     1
102
RTVSPropertyOp13
 70
     1
102
RTVSPropertyOp14
 70
     1
102
RTVSPropertyOp15
 70
     1
102
RTVSPropertyOp16
 70
     1
102
RTVSPropertyOp17
 70
     1
102
RTVSPropertyOp18
 70
     1
102
RTVSPropertyOp19
 70
     1
102
RTVSPropertyOp20
 70
     1
102
RTVSPropertyOp21
 70
     1
102
RTVSPropertyOp22
 70
     1
102
RTVSPropertyOp23
 70
     1
102
RTVSPropertyOp24
 70
     1
102
RTVSPropertyOp25
 70
     1
102
RTVSPropertyOp26
 70
     1
102
RTVSPropertyOp27
 70
     1
102
RTVSPropertyOp28
 70
     1
102
RTVSPropertyOp29
 70
     1
102
RTVSPropertyOp30
 70
     1
102
RTVSPropertyOp31
 70
     1
102
RTVSPropertyOp32
 70
     1
  0
XRECORD
  5
84E
102
{ACAD_REACTORS
330
84D
102
}
330
84D
100
AcDbXrecord
280
     1
102
RTVSPropertyOp0
 70
     1
102
RTVSPropertyOp1
 70
     1
102
RTVSPropertyOp2
 70
     1
102
RTVSPropertyOp3
 70
     1
102
RTVSPropertyOp4
 70
     1
102
RTVSPropertyOp5
 70
     1
102
RTVSPropertyOp6
 70
     1
102
RTVSPropertyOp7
 70
     1
102
RTVSPropertyOp8
 70
     1
102
RTVSPropertyOp9
 70
     1
102
RTVSPropertyOp10
 70
     1
102
RTVSPropertyOp11
 70
     1
102
RTVSPropertyOp12
 70
     1
102
RTVSPropertyOp13
 70
     1
102
RTVSPropertyOp14
 70
     1
102
RTVSPropertyOp15
 70
     1
102
RTVSPropertyOp16
 70
     1
102
RTVSPropertyOp17
 70
     1
102
RTVSPropertyOp18
 70
     1
102
RTVSPropertyOp19
 70
     1
102
RTVSPropertyOp20
 70
     1
102
RTVSPropertyOp21
 70
     1
102
RTVSPropertyOp22
 70
     1
102
RTVSPropertyOp23
 70
     1
102
RTVSPropertyOp24
 70
     1
102
RTVSPropertyOp25
 70
     1
102
RTVSPropertyOp26
 70
     1
102
RTVSPropertyOp27
 70
     1
102
RTVSPropertyOp28
 70
     1
102
RTVSPropertyOp29
 70
     1
102
RTVSPropertyOp30
 70
     1
102
RTVSPropertyOp31
 70
     1
102
RTVSPropertyOp32
 70
     1
  0
XRECORD
  5
856
102
{ACAD_REACTORS
330
855
102
}
330
855
100
AcDbXrecord
280
     1
102
RTVSPropertyOp0
 70
     1
102
RTVSPropertyOp1
 70
     1
102
RTVSPropertyOp2
 70
     1
102
RTVSPropertyOp3
 70
     1
102
RTVSPropertyOp4
 70
     1
102
RTVSPropertyOp5
 70
     1
102
RTVSPropertyOp6
 70
     1
102
RTVSPropertyOp7
 70
     1
102
RTVSPropertyOp8
 70
     1
102
RTVSPropertyOp9
 70
     1
102
RTVSPropertyOp10
 70
     1
102
RTVSPropertyOp11
 70
     1
102
RTVSPropertyOp12
 70
     1
102
RTVSPropertyOp13
 70
     1
102
RTVSPropertyOp14
 70
     1
102
RTVSPropertyOp15
 70
     1
102
RTVSPropertyOp16
 70
     1
102
RTVSPropertyOp17
 70
     1
102
RTVSPropertyOp18
 70
     1
102
RTVSPropertyOp19
 70
     1
102
RTVSPropertyOp20
 70
     1
102
RTVSPropertyOp21
 70
     1
102
RTVSPropertyOp22
 70
     1
102
RTVSPropertyOp23
 70
     1
102
RTVSPropertyOp24
 70
     1
102
RTVSPropertyOp25
 70
     1
102
RTVSPropertyOp26
 70
     1
102
RTVSPropertyOp27
 70
     1
102
RTVSPropertyOp28
 70
     1
102
RTVSPropertyOp29
 70
     1
102
RTVSPropertyOp30
 70
     1
102
RTVSPropertyOp31
 70
     1
102
RTVSPropertyOp32
 70
     1
  0
XRECORD
  5
872
102
{ACAD_REACTORS
330
871
102
}
330
871
100
AcDbXrecord
280
     1
102
RTVSPropertyOp0
 70
     0
102
RTVSPropertyOp1
 70
     0
102
RTVSPropertyOp2
 70
     0
102
RTVSPropertyOp3
 70
     0
102
RTVSPropertyOp4
 70
     0
102
RTVSPropertyOp5
 70
     0
102
RTVSPropertyOp6
 70
     0
102
RTVSPropertyOp7
 70
     0
102
RTVSPropertyOp8
 70
     0
102
RTVSPropertyOp9
 70
     0
102
RTVSPropertyOp10
 70
     0
102
RTVSPropertyOp11
 70
     0
102
RTVSPropertyOp12
 70
     0
102
RTVSPropertyOp13
 70
     0
102
RTVSPropertyOp14
 70
     2
102
RTVSPropertyOp15
 70
     0
102
RTVSPropertyOp16
 70
     0
102
RTVSPropertyOp17
 70
     0
102
RTVSPropertyOp18
 70
     0
102
RTVSPropertyOp19
 70
     0
102
RTVSPropertyOp20
 70
     0
102
RTVSPropertyOp21
 70
     0
102
RTVSPropertyOp22
 70
     0
102
RTVSPropertyOp23
 70
     0
102
RTVSPropertyOp24
 70
     0
102
RTVSPropertyOp25
 70
     0
102
RTVSPropertyOp26
 70
     0
102
RTVSPropertyOp27
 70
     0
102
RTVSPropertyOp28
 70
     0
102
RTVSPropertyOp29
 70
     0
102
RTVSPropertyOp30
 70
     0
102
RTVSPropertyOp31
 70
     0
102
RTVSPropertyOp32
 70
     0
  0
XRECORD
  5
862
102
{ACAD_REACTORS
330
861
102
}
330
861
100
AcDbXrecord
280
     1
102
RTVSPropertyOp0
 70
     1
102
RTVSPropertyOp1
 70
     1
102
RTVSPropertyOp2
 70
     1
102
RTVSPropertyOp3
 70
     1
102
RTVSPropertyOp4
 70
     1
102
RTVSPropertyOp5
 70
     1
102
RTVSPropertyOp6
 70
     1
102
RTVSPropertyOp7
 70
     1
102
RTVSPropertyOp8
 70
     1
102
RTVSPropertyOp9
 70
     1
102
RTVSPropertyOp10
 70
     1
102
RTVSPropertyOp11
 70
     1
102
RTVSPropertyOp12
 70
     1
102
RTVSPropertyOp13
 70
     1
102
RTVSPropertyOp14
 70
     1
102
RTVSPropertyOp15
 70
     1
102
RTVSPropertyOp16
 70
     1
102
RTVSPropertyOp17
 70
     1
102
RTVSPropertyOp18
 70
     1
102
RTVSPropertyOp19
 70
     1
102
RTVSPropertyOp20
 70
     1
102
RTVSPropertyOp21
 70
     1
102
RTVSPropertyOp22
 70
     1
102
RTVSPropertyOp23
 70
     1
102
RTVSPropertyOp24
 70
     1
102
RTVSPropertyOp25
 70
     1
102
RTVSPropertyOp26
 70
     1
102
RTVSPropertyOp27
 70
     1
102
RTVSPropertyOp28
 70
     1
102
RTVSPropertyOp29
 70
     1
102
RTVSPropertyOp30
 70
     1
102
RTVSPropertyOp31
 70
     1
102
RTVSPropertyOp32
 70
     1
  0
XRECORD
  5
874
102
{ACAD_REACTORS
330
873
102
}
330
873
100
AcDbXrecord
280
     1
102
RTVSPropertyOp0
 70
     0
102
RTVSPropertyOp1
 70
     0
102
RTVSPropertyOp2
 70
     0
102
RTVSPropertyOp3
 70
     0
102
RTVSPropertyOp4
 70
     0
102
RTVSPropertyOp5
 70
     0
102
RTVSPropertyOp6
 70
     0
102
RTVSPropertyOp7
 70
     0
102
RTVSPropertyOp8
 70
     0
102
RTVSPropertyOp9
 70
     0
102
RTVSPropertyOp10
 70
     0
102
RTVSPropertyOp11
 70
     0
102
RTVSPropertyOp12
 70
     0
102
RTVSPropertyOp13
 70
     0
102
RTVSPropertyOp14
 70
     2
102
RTVSPropertyOp15
 70
     0
102
RTVSPropertyOp16
 70
     0
102
RTVSPropertyOp17
 70
     0
102
RTVSPropertyOp18
 70
     0
102
RTVSPropertyOp19
 70
     0
102
RTVSPropertyOp20
 70
     0
102
RTVSPropertyOp21
 70
     0
102
RTVSPropertyOp22
 70
     0
102
RTVSPropertyOp23
 70
     0
102
RTVSPropertyOp24
 70
     0
102
RTVSPropertyOp25
 70
     0
102
RTVSPropertyOp26
 70
     0
102
RTVSPropertyOp27
 70
     0
102
RTVSPropertyOp28
 70
     0
102
RTVSPropertyOp29
 70
     0
102
RTVSPropertyOp30
 70
     0
102
RTVSPropertyOp31
 70
     0
102
RTVSPropertyOp32
 70
     0
  0
XRECORD
  5
85A
102
{ACAD_REACTORS
330
859
102
}
330
859
100
AcDbXrecord
280
     1
102
RTVSPropertyOp0
 70
     1
102
RTVSPropertyOp1
 70
     1
102
RTVSPropertyOp2
 70
     1
102
RTVSPropertyOp3
 70
     1
102
RTVSPropertyOp4
 70
     1
102
RTVSPropertyOp5
 70
     1
102
RTVSPropertyOp6
 70
     1
102
RTVSPropertyOp7
 70
     1
102
RTVSPropertyOp8
 70
     1
102
RTVSPropertyOp9
 70
     1
102
RTVSPropertyOp10
 70
     1
102
RTVSPropertyOp11
 70
     1
102
RTVSPropertyOp12
 70
     1
102
RTVSPropertyOp13
 70
     1
102
RTVSPropertyOp14
 70
     1
102
RTVSPropertyOp15
 70
     1
102
RTVSPropertyOp16
 70
     1
102
RTVSPropertyOp17
 70
     1
102
RTVSPropertyOp18
 70
     1
102
RTVSPropertyOp19
 70
     1
102
RTVSPropertyOp20
 70
     1
102
RTVSPropertyOp21
 70
     1
102
RTVSPropertyOp22
 70
     1
102
RTVSPropertyOp23
 70
     1
102
RTVSPropertyOp24
 70
     1
102
RTVSPropertyOp25
 70
     1
102
RTVSPropertyOp26
 70
     1
102
RTVSPropertyOp27
 70
     1
102
RTVSPropertyOp28
 70
     1
102
RTVSPropertyOp29
 70
     1
102
RTVSPropertyOp30
 70
     1
102
RTVSPropertyOp31
 70
     1
102
RTVSPropertyOp32
 70
     1
  0
XRECORD
  5
870
102
{ACAD_REACTORS
330
86F
102
}
330
86F
100
AcDbXrecord
280
     1
102
RTVSPropertyOp0
 70
     1
102
RTVSPropertyOp1
 70
     1
102
RTVSPropertyOp2
 70
     1
102
RTVSPropertyOp3
 70
     1
102
RTVSPropertyOp4
 70
     1
102
RTVSPropertyOp5
 70
     1
102
RTVSPropertyOp6
 70
     1
102
RTVSPropertyOp7
 70
     1
102
RTVSPropertyOp8
 70
     1
102
RTVSPropertyOp9
 70
     1
102
RTVSPropertyOp10
 70
     1
102
RTVSPropertyOp11
 70
     1
102
RTVSPropertyOp12
 70
     1
102
RTVSPropertyOp13
 70
     1
102
RTVSPropertyOp14
 70
     1
102
RTVSPropertyOp15
 70
     1
102
RTVSPropertyOp16
 70
     1
102
RTVSPropertyOp17
 70
     1
102
RTVSPropertyOp18
 70
     1
102
RTVSPropertyOp19
 70
     1
102
RTVSPropertyOp20
 70
     1
102
RTVSPropertyOp21
 70
     1
102
RTVSPropertyOp22
 70
     1
102
RTVSPropertyOp23
 70
     1
102
RTVSPropertyOp24
 70
     1
102
RTVSPropertyOp25
 70
     1
102
RTVSPropertyOp26
 70
     1
102
RTVSPropertyOp27
 70
     1
102
RTVSPropertyOp28
 70
     1
102
RTVSPropertyOp29
 70
     1
102
RTVSPropertyOp30
 70
     1
102
RTVSPropertyOp31
 70
     1
102
RTVSPropertyOp32
 70
     1
  0
XRECORD
  5
86E
102
{ACAD_REACTORS
330
86D
102
}
330
86D
100
AcDbXrecord
280
     1
102
RTVSPropertyOp0
 70
     1
102
RTVSPropertyOp1
 70
     1
102
RTVSPropertyOp2
 70
     1
102
RTVSPropertyOp3
 70
     1
102
RTVSPropertyOp4
 70
     1
102
RTVSPropertyOp5
 70
     1
102
RTVSPropertyOp6
 70
     1
102
RTVSPropertyOp7
 70
     1
102
RTVSPropertyOp8
 70
     1
102
RTVSPropertyOp9
 70
     1
102
RTVSPropertyOp10
 70
     1
102
RTVSPropertyOp11
 70
     1
102
RTVSPropertyOp12
 70
     1
102
RTVSPropertyOp13
 70
     1
102
RTVSPropertyOp14
 70
     1
102
RTVSPropertyOp15
 70
     1
102
RTVSPropertyOp16
 70
     1
102
RTVSPropertyOp17
 70
     1
102
RTVSPropertyOp18
 70
     1
102
RTVSPropertyOp19
 70
     1
102
RTVSPropertyOp20
 70
     1
102
RTVSPropertyOp21
 70
     1
102
RTVSPropertyOp22
 70
     1
102
RTVSPropertyOp23
 70
     1
102
RTVSPropertyOp24
 70
     1
102
RTVSPropertyOp25
 70
     1
102
RTVSPropertyOp26
 70
     1
102
RTVSPropertyOp27
 70
     1
102
RTVSPropertyOp28
 70
     1
102
RTVSPropertyOp29
 70
     1
102
RTVSPropertyOp30
 70
     1
102
RTVSPropertyOp31
 70
     1
102
RTVSPropertyOp32
 70
     1
  0
XRECORD
  5
868
102
{ACAD_REACTORS
330
867
102
}
330
867
100
AcDbXrecord
280
     1
102
RTVSPropertyOp0
 70
     1
102
RTVSPropertyOp1
 70
     1
102
RTVSPropertyOp2
 70
     1
102
RTVSPropertyOp3
 70
     1
102
RTVSPropertyOp4
 70
     1
102
RTVSPropertyOp5
 70
     1
102
RTVSPropertyOp6
 70
     1
102
RTVSPropertyOp7
 70
     1
102
RTVSPropertyOp8
 70
     1
102
RTVSPropertyOp9
 70
     1
102
RTVSPropertyOp10
 70
     1
102
RTVSPropertyOp11
 70
     1
102
RTVSPropertyOp12
 70
     1
102
RTVSPropertyOp13
 70
     1
102
RTVSPropertyOp14
 70
     1
102
RTVSPropertyOp15
 70
     1
102
RTVSPropertyOp16
 70
     1
102
RTVSPropertyOp17
 70
     1
102
RTVSPropertyOp18
 70
     1
102
RTVSPropertyOp19
 70
     1
102
RTVSPropertyOp20
 70
     1
102
RTVSPropertyOp21
 70
     1
102
RTVSPropertyOp22
 70
     1
102
RTVSPropertyOp23
 70
     1
102
RTVSPropertyOp24
 70
     1
102
RTVSPropertyOp25
 70
     1
102
RTVSPropertyOp26
 70
     1
102
RTVSPropertyOp27
 70
     1
102
RTVSPropertyOp28
 70
     1
102
RTVSPropertyOp29
 70
     1
102
RTVSPropertyOp30
 70
     1
102
RTVSPropertyOp31
 70
     1
102
RTVSPropertyOp32
 70
     1
  0
XRECORD
  5
86A
102
{ACAD_REACTORS
330
869
102
}
330
869
100
AcDbXrecord
280
     1
102
RTVSPropertyOp0
 70
     1
102
RTVSPropertyOp1
 70
     1
102
RTVSPropertyOp2
 70
     1
102
RTVSPropertyOp3
 70
     1
102
RTVSPropertyOp4
 70
     1
102
RTVSPropertyOp5
 70
     1
102
RTVSPropertyOp6
 70
     1
102
RTVSPropertyOp7
 70
     1
102
RTVSPropertyOp8
 70
     1
102
RTVSPropertyOp9
 70
     1
102
RTVSPropertyOp10
 70
     1
102
RTVSPropertyOp11
 70
     1
102
RTVSPropertyOp12
 70
     1
102
RTVSPropertyOp13
 70
     1
102
RTVSPropertyOp14
 70
     1
102
RTVSPropertyOp15
 70
     1
102
RTVSPropertyOp16
 70
     1
102
RTVSPropertyOp17
 70
     1
102
RTVSPropertyOp18
 70
     1
102
RTVSPropertyOp19
 70
     1
102
RTVSPropertyOp20
 70
     1
102
RTVSPropertyOp21
 70
     1
102
RTVSPropertyOp22
 70
     1
102
RTVSPropertyOp23
 70
     1
102
RTVSPropertyOp24
 70
     1
102
RTVSPropertyOp25
 70
     1
102
RTVSPropertyOp26
 70
     1
102
RTVSPropertyOp27
 70
     1
102
RTVSPropertyOp28
 70
     1
102
RTVSPropertyOp29
 70
     1
102
RTVSPropertyOp30
 70
     1
102
RTVSPropertyOp31
 70
     1
102
RTVSPropertyOp32
 70
     1
  0
XRECORD
  5
860
102
{ACAD_REACTORS
330
85F
102
}
330
85F
100
AcDbXrecord
280
     1
102
RTVSPropertyOp0
 70
     1
102
RTVSPropertyOp1
 70
     1
102
RTVSPropertyOp2
 70
     1
102
RTVSPropertyOp3
 70
     1
102
RTVSPropertyOp4
 70
     1
102
RTVSPropertyOp5
 70
     1
102
RTVSPropertyOp6
 70
     1
102
RTVSPropertyOp7
 70
     1
102
RTVSPropertyOp8
 70
     1
102
RTVSPropertyOp9
 70
     1
102
RTVSPropertyOp10
 70
     1
102
RTVSPropertyOp11
 70
     1
102
RTVSPropertyOp12
 70
     1
102
RTVSPropertyOp13
 70
     1
102
RTVSPropertyOp14
 70
     1
102
RTVSPropertyOp15
 70
     1
102
RTVSPropertyOp16
 70
     1
102
RTVSPropertyOp17
 70
     1
102
RTVSPropertyOp18
 70
     1
102
RTVSPropertyOp19
 70
     1
102
RTVSPropertyOp20
 70
     1
102
RTVSPropertyOp21
 70
     1
102
RTVSPropertyOp22
 70
     1
102
RTVSPropertyOp23
 70
     1
102
RTVSPropertyOp24
 70
     1
102
RTVSPropertyOp25
 70
     1
102
RTVSPropertyOp26
 70
     1
102
RTVSPropertyOp27
 70
     1
102
RTVSPropertyOp28
 70
     1
102
RTVSPropertyOp29
 70
     1
102
RTVSPropertyOp30
 70
     1
102
RTVSPropertyOp31
 70
     1
102
RTVSPropertyOp32
 70
     1
  0
XRECORD
  5
854
102
{ACAD_REACTORS
330
853
102
}
330
853
100
AcDbXrecord
280
     1
102
RTVSPropertyOp0
 70
     1
102
RTVSPropertyOp1
 70
     1
102
RTVSPropertyOp2
 70
     1
102
RTVSPropertyOp3
 70
     1
102
RTVSPropertyOp4
 70
     1
102
RTVSPropertyOp5
 70
     1
102
RTVSPropertyOp6
 70
     1
102
RTVSPropertyOp7
 70
     1
102
RTVSPropertyOp8
 70
     1
102
RTVSPropertyOp9
 70
     1
102
RTVSPropertyOp10
 70
     1
102
RTVSPropertyOp11
 70
     1
102
RTVSPropertyOp12
 70
     1
102
RTVSPropertyOp13
 70
     1
102
RTVSPropertyOp14
 70
     1
102
RTVSPropertyOp15
 70
     1
102
RTVSPropertyOp16
 70
     1
102
RTVSPropertyOp17
 70
     1
102
RTVSPropertyOp18
 70
     1
102
RTVSPropertyOp19
 70
     1
102
RTVSPropertyOp20
 70
     1
102
RTVSPropertyOp21
 70
     1
102
RTVSPropertyOp22
 70
     1
102
RTVSPropertyOp23
 70
     1
102
RTVSPropertyOp24
 70
     1
102
RTVSPropertyOp25
 70
     1
102
RTVSPropertyOp26
 70
     1
102
RTVSPropertyOp27
 70
     1
102
RTVSPropertyOp28
 70
     1
102
RTVSPropertyOp29
 70
     1
102
RTVSPropertyOp30
 70
     1
102
RTVSPropertyOp31
 70
     1
102
RTVSPropertyOp32
 70
     1
  0
XRECORD
  5
86C
102
{ACAD_REACTORS
330
86B
102
}
330
86B
100
AcDbXrecord
280
     1
102
RTVSPropertyOp0
 70
     1
102
RTVSPropertyOp1
 70
     1
102
RTVSPropertyOp2
 70
     1
102
RTVSPropertyOp3
 70
     1
102
RTVSPropertyOp4
 70
     1
102
RTVSPropertyOp5
 70
     1
102
RTVSPropertyOp6
 70
     1
102
RTVSPropertyOp7
 70
     1
102
RTVSPropertyOp8
 70
     1
102
RTVSPropertyOp9
 70
     1
102
RTVSPropertyOp10
 70
     1
102
RTVSPropertyOp11
 70
     1
102
RTVSPropertyOp12
 70
     1
102
RTVSPropertyOp13
 70
     1
102
RTVSPropertyOp14
 70
     1
102
RTVSPropertyOp15
 70
     1
102
RTVSPropertyOp16
 70
     1
102
RTVSPropertyOp17
 70
     1
102
RTVSPropertyOp18
 70
     1
102
RTVSPropertyOp19
 70
     1
102
RTVSPropertyOp20
 70
     1
102
RTVSPropertyOp21
 70
     1
102
RTVSPropertyOp22
 70
     1
102
RTVSPropertyOp23
 70
     1
102
RTVSPropertyOp24
 70
     1
102
RTVSPropertyOp25
 70
     1
102
RTVSPropertyOp26
 70
     1
102
RTVSPropertyOp27
 70
     1
102
RTVSPropertyOp28
 70
     1
102
RTVSPropertyOp29
 70
     1
102
RTVSPropertyOp30
 70
     1
102
RTVSPropertyOp31
 70
     1
102
RTVSPropertyOp32
 70
     1
  0
ENDSEC
  0
EOF
